ConnexionConnexionInscription
B E A D G
157 connectés Sweepyto Guitare

Jamiroquai - Emergency on planet earth (Pont)

Publié par le
30/03/2006
24579 vues
Moyen 2
Vitesse NormaleNormal speed Vitesse RalentieSlow down speed
G--------------------|-3-----5-----5-----5--|
D-----5-------7------|----------------------|
A-----------------1--|----3-----3-----3-----|
E--3-----X-5----X----|----------------------|
T P T T P T T P T P T P T P

G-----7------8------|-------6-----6-----6--|
D-------------------|-6--------------------|
A--5----X-6----X----|----4-----4-----4-----|
E----------------4--|----------------------|
T P T T P T T P T P T P T P

G--------------------|-3-----5-----5-----5--|
D-----5-------7------|----------------------|
A-----------------1--|----3-----3-----3-----|
E--3-----X-5----X----|----------------------|
T P T T P T T P T P T P T P

G-----7------8------|-----------6-----------8--|-------|
D-------------------|-----6-----------8--------|-------|
A--5----X-6----X----|--------4-----------6-----|-------|
E-------------------|--4-----------6-----------|-3-----|
T P T T P T T P T P T P T P T
Voilà le pont de ce morceau, toujours en slap soyez précis il n'y a plus que la basse pour donner le rythme, mais cette fois ci n'hésitez pas à bien laisser sonner les tirés à l'octave sur la deuxième, quatrième, sixième et huitième mesure comme sur la vidéo, bon courage, avec de l'entrainement cela devrait venir assez rapidement, et c'est un très bon exos pour se lancer dans le slap si vous avez déjà aquis les 2 mouvements de base, c'est à dire savoir faire un "tapé" sec, et un "tiré" précis.

0 Commentaires : réagissez !

1 2 3 4 5
1 note
Notes pour Emergency on planet earth (Pont) - Jamiroquai - Cours de basse vidéo | Slappyto : 4/5 sur 1 note
Aucun commentaire !

L'appli Cours de Basse Débutants

Développé par slappyto