ConnexionConnexionInscription
B E A D G
124 connectés Sweepyto Guitare

Jamiroquai - Space cowboy (couplet)

Publié par le
30/03/2006
53316 vues
Avancé 1
Vitesse NormaleNormal speed Vitesse RalentieSlow down speed
G----------6------|--------------------|
D-----------------|--------------------|
A--4--X-4-----4-X-|-3-----1--3---------|
E-----------------|----3--------2--4-X-|

G-------------------|-------------------|
D-------------------|----6----6-/-8--6--|
A-2----2---2--------|-------6-----------|
E----2---2----0-2-X-|-4-----------------|

G-------8---6-----|---------------------|
D-----6---6-------|---------------------|
A--4-----------4--|--3-----1--3---------|
E-----------------|-----3--------2--4-X-|

G-------------------|---------------------|
D-------------------|----4---------6------|
A-2----2---2--------|-------X--------6----|
E----2---2----2-2-X-|-2-------4-4------4--|

G--------------------|----------------|
D--------------------|----------------|
A--4----4---4--4-4-X-|-2----2---2--4--|
E-----4---4----------|----2---2-------|

G-----------------|------------------------|
D--------6--6-----|-------6---6-H-8-6------|
A-----6--------6--|-----6---6---------8-6--|
E--4--------------|--4---------------------|

G----------------|------------------|
D----------------|--6-6-H-8-6-------|
A--X-7-8---------|-------------8-6--|
E---------X-4-6--|------------------|

G----------------|---------------------|
D----------------|----6---6-H-8-6------|
A--X-7-8---------|--8---8---------8-6--|
E---------X-4-6--|---------------------|

G----------------|---------------------|
D----------------|----6---6-H-8-6------|
A--X-7-8---------|--8---8---------8-6--|
E---------X-4-6--|---------------------|

G--------------------|
D--------------------|
A--X-6-7-8-----------|
E-----------X-4-5-6--|
Ce morceau est joué sur un rythme cool, profitez-en pour bien placer chaques notes pile sur le tempo. Apprenez ce riff morceau par morceau sans précipitation pour bien assimiler le placement sur le manche de façon à jouer sans hésitations. Ne vous fiez pas aux apparences car même si le rythme n'est pas très rapide le jeu de Stuart Zender est très stylé, assez syncopé avec pas mal de notes mortes, et oui encore elles lol ;-) alors écoutez bien la vidéo pour repérer les passages qui vous paraissent difficiles et travaillez ceux-ci d'avantage jusqu'à ce que vous arriviez à jouer ce riff dans son intégralité.

0 Commentaires : réagissez !

1 2 3 4 5
1 note
Notes pour Space cowboy (couplet) - Jamiroquai - Cours de basse vidéo | Slappyto : 5/5 sur 1 note
Aucun commentaire !

L'appli Cours de Basse Débutants

Développé par slappyto