ConnexionConnexionInscription
B E A D G
219 connectés Sweepyto Guitare

Jamiroquai - Too young to die

Publié par le
30/03/2006
38957 vues
Avancé 1
Vitesse NormaleNormal speed Vitesse RalentieSlow down speed
G----------|---------------------|----------------------|
D----------|---------------------|----------------------|
A--1--3----|--1------------3--3--|--X-1---------3-------|
E----------|-----X--1-H-3--------|-------1-H-3-----3-2--|

G-----------------------|-----------------------|
D---------------1-------|---------------1-------|
A--------1-H-3----X-----|--------1-H-3-----3-2--|
E-1--3-X-------------1--|--X-3------------------|

G--------3-X-3------------|---------------------------|
D-----3---------3---------|--------6--X--5------------|
A--1---------------1-X-0--|-----6-----------5------1--|
E-------------------------|--4-----------------3-X----|

G--------5--------------6-----------|
D-----5-----X--------6--------4-----|
A--3-----------X--4--------6-----6--|
E-----------------------------------|

G-----------------------------6-----|
D--6-----4--6--6-/-8--6~~-----------|
A-----6--------------------4-----4--|
E-----------------------------------|

G--------5--------------6--------|
D-----5-----X--------6-----6-6-6-|
A--3-----------X--4--------------|
E--------------------------------|

G--------------------------------|
D-6--------6-/-8-----------------|
A-------6---------9-----9-\-(3)--|
E----4---------------9-----------|
Ici pas de secrets il faut faire tourner tout çà au métronome, de preference, la basse doit véritablement faire corps avec la batterie tout le morceau repose sur ce groove "sautillant", faite bien attention à respécter les silences, cela fait aussi parti du groove. Pour ceux qui ne sont pas familiarisé avec les notes mortes signalées d'une croix sur la tablature, je vous conseillerais de bien écouter le morceau au ralenti puis à vitesse normal en repérant ce que les notes mortes apportent au riff, ensuite travaillez lentement de façon à ce que les notes mortes deviennent un atout et non une contrainte, c'est important ;-) Pour peaufiner tout çà faites bien attention aux petites touches sur certaines notes comme le vibrato ( ~~ ) ou encore les petits glissés qui font la différence :-)

2 Commentaires

1 2 3 4 5
0 notes
#2
23/03/2011 11:47:12
Dommage, la vidéo ne marche pas...
0
0
#1
28/12/2010 11:21:42
La vidéo ne marche pas... ?
0
0

L'appli Cours de Slap Débutants

Développé par slappyto