ConnexionConnexionInscription
B E A D G
347 connectés Sweepyto Guitare

Led Zeppelin - Whole Lotta Love

Publié par le
31/03/2006
43937 vues
Moyen 1
Vitesse NormaleNormal speed Vitesse RalentieSlow down speed
G-------------------------------------------------------|
D-------------------------------------------------------|
A----5---5---------------------5---5--------------------|
E--7---7---0-X-0-0-X-0-0-----7---7---0-X-0-0-X-0-0------|

G-------------------------------------------------------|
D-------------------------------------------------------|
A--------5---------------------5---5--------------------|
E--7---7---0-X-0-0-X-0-0-----7---7---0-X-0-0-X-0-0------|
Un plan assez facile la encore, mais avec une bonne mise en place avec une guitare et une batterie, vous faites un malheur... Attention à bien étouffer la corde de Mi quand il y a des "X". C'est ce qui "tient la baraque"... Et si vous avez un groupe, vous pouvez faire tourner ce riff des heures sans vous lasser (encore mieux si le guitariste fait un solo) :oP

Another quite easy plan, but itll rock the house with a good guitar/drum layout. Mind muffling the E string at the Xs, thats what holds it all together. Moreover, if you have a band, you can play this one for hours and not get tired of it. (even better with a guitar solo!!!)

0 Commentaires : réagissez !

1 2 3 4 5
2 notes
Notes pour Whole Lotta Love - Led Zeppelin - Cours de basse vidéo | Slappyto : 3/5 sur 2 notes
Aucun commentaire !

L'appli Cours de Basse Débutants

Développé par slappyto