ConnexionConnexionInscription
B E A D G
167 connectés Sweepyto Guitare

Composition - Poppyxies - Part 3

Publié par le
31/03/2006
29935 vues
Débutant 3
Vitesse NormaleNormal speed
|----------------------|----------------------|
|-------9-------9------|-------9-------9------|
|--9---------9---------|--9---------9---------|
|----------------------|----------------------|
|----------------------|----------------------|
|----------------------|----------------------|

|----------------------|----------------------|
|-------9-------9------|-------9-------9------|
|--9---------9---------|--9---------9---------|
|----------------------|----------------------|
|----------------------|----------------------|
|----------------------|----------------------|
A présent pour alléger le côté répétitif nous allons modifier le rythme de notre riff guitare sur 2 mesures. Ainsi nous avons un motif qui se répète 2 fois au lieu d’un motif qui se répète 4 fois.

0 Commentaires : réagissez !

1 2 3 4 5
0 notes
Aucun commentaire !

L'appli Cours de Slap Débutants

Développé par slappyto