ConnexionConnexionInscription
B E A D G
198 connectés Sweepyto Guitare

Jamiroquai - Stillness in time (couplet)

Publié par le
10/04/2006
24786 vues
Avancé 1
Vitesse NormaleNormal speed Vitesse RalentieSlow down speed
G ------5-------------12-x---|-----5-------------12-x---|
D ----5---x---3----10------x-|---5---x---3----10------x-|
A -3--------x----------------|3--------x----------------|
E ---------------------------|--------------------------|

G ------3--5-5--5-----3------|-----3-------------|
D ----3-----------x-x---x----|---3---------------|
A -1----------------------x--|1------------------|
E ---------------------------|-------3-3--x-3--3-|

Ici, on reprend les trois premières mesures
Et la quatrième mesure:

G ---------------------|------
D ----------1--1-1-x---|------
A -1--1-1-x----------x-|------
E ---------------------|4-----
Bonjour,
Alors, ATTENTION, je joue comme je le sens  et ce n'est donc pas une tablature à la note près.
J'ai découpé le "truc" en 4 parties.
Vous pouvez doubler les notes "10/12" dans la première et deuxième mesure, mettre d'autres ghost note, bref, faire ce que vous voulez au niveau de l'articulation tout en respectant le morceau bien evidemment!!
Le mieux est d'avoir le morceau avec vous et n'hésitez pas à travaillez lentement pour bien acquérir l'enchainement des ghosts notes avec les notes et les changements de positions, qui doivent etre "coulants" (heuuu moi aussi je le bosse encore d'ailleurs ).
Mais bon, les lignes de STUART ZENDER sont tellement excellentes à jouer......

A+

1 Commentaire

1 2 3 4 5
0 notes
#1
21/10/2015 21:54:05

media non disponible  

0
0

L'appli Cours de Slap Débutants

Développé par slappyto