ConnexionConnexionInscription
B E A D G
181 connectés Sweepyto Guitare

Jamiroquai - Stillness in time (Pont)

Publié par le
10/04/2006
41879 vues
Avancé 1
Vitesse NormaleNormal speed Vitesse RalentieSlow down speed
G -----------------------|--------------8---------|-----
D -----------------------|------------------------|-----
A -2------2-3-x--------x-|4-4-----4-/6----x---6---|2----
E ----3-3-------x-3-3----|----4-4-----------6---x-|-----

Le plan de la fin

G -/10-8-6-5-6-8/10---------|
D --------------------------|
A --------------------------|
E --------------------------|

Prenez garde à la sortie du pont, la succession slide + note n'est pas évidente, jouez là doucement au premier abord

0 Commentaires : réagissez !

1 2 3 4 5
0 notes
Aucun commentaire !

L'appli Cours de Slap Débutants

Développé par slappyto