ConnexionConnexionInscription
B E A D G
163 connectés Sweepyto Guitare

Jamiroquai - Hooked up

Publié par le
17/04/2006
33572 vues
Moyen 4
Vitesse NormaleNormal speed Vitesse RalentieSlow down speed
G --------------8-----|-----------------|-------------------|
D ------------6---x---|-----------------|-------------------|
A --------x-7-------x-|4-5-6-x----------|--------x-7-7--7---|
E -2--4-4-------------|--------6--7-7-x-|2--4-4-----------0-|

G ----------------|-------------8-----|-----------------|-----------------|
D ------x-6-7-8---|-----------6---x---|-----------------|-----------------|
A 4-5-6---------x-|-------x-7-------x-|4-5-6-x----------|-------x-7-7--7--|
E ----------------|2--4-4-------------|--------6--7-7-x-|2--4-4----------0|
Salut à tous
Bon ben on continue chez JAMI alors... Un bon détachement des notes et je conseille de travailler le "shéma" rythmique, lentement (il est un peu zarb...). Sinon, encore une fois, cette ligne est une autoroute!!
A+ pour les deux autres parties du morceaux

0 Commentaires : réagissez !

1 2 3 4 5
0 notes
Aucun commentaire !

L'appli Cours de Basse Débutants

Développé par slappyto