ConnexionConnexionInscription
B E A D G
207 connectés Sweepyto Guitare

Jamiroquai - Hooked up (2e et 3e partie)

Publié par le
24/04/2006
22463 vues
Moyen 2
Vitesse NormaleNormal speed Vitesse RalentieSlow down speed
G ----------|-----------6|h8--------------|----------6|h8-------------|
D ----------|------------|---x------------|-----------|---x-----------|
A -6--4h6--6|-x6-x6-x6---|-----6--x-6-6--6|x6-x6-x6---|-----6-x-4h6--6|
E ----------|------------|----------------|-----------|---------------|

G ----------------|-----------------|--------|
D ---------/8-6--6|h8--x------------|--------|
A x6-x6-x6--------|------6--x 4h6--6|x6-x6-x6|
E ----------------|-----------------|--------|

G 3-5--3-3-5-------|3-5----------3-5-|
D -----------x-----|----x-3-3--5-----|
A --------------3-3|-----------------|
E -----------------|-----------------|
Salut :)
Voci donc la suite.
Pas de grosse difficultée, juste le jouer bien "tendu" et légèrement "devant".
Vous pouvez également mettre les Ghosts que vous voulez mais toujours bien en phase avec le groove

0 Commentaires : réagissez !

1 2 3 4 5
0 notes
Aucun commentaire !

L'appli Cours de Slap Débutants

Développé par slappyto