ConnexionConnexionInscription
B E A D G
173 connectés Sweepyto Guitare

Jamiroquai - High Times

Publié par le
24/04/2006
26968 vues
Moyen 2
Vitesse NormaleNormal speed Vitesse RalentieSlow down speed
G ----------------|--------------|
D ----------------|--------------|
A 7-7--x7---------|--------------|
E --------6-6--x6-|5-5--x7-3-0-0-|

X2 (sur l'exemple de la video)

G ---------------|---------------|------------------|---------------------|
D ---------------|---------------|------------------|---------------x-7-9-|
A 7-7--x5---7----|-------------x-|8-8-x--6---6h8--x-|7-7-x--5---5h7-------|
E --------7----x-|5-5--x7--8-9---|---------8--------|---------7-----------|

X2 également
Salut ;)
Voilà un morceau bien sympathique....J'ai noté des ghosts (X) mais en fait il s'agit de stopper le son des cordes avec vos doigts ou autres, comme je ne savais pas quoi indiqué pour ça...

0 Commentaires : réagissez !

1 2 3 4 5
1 note
Notes pour High Times - Jamiroquai - Cours de basse vidéo | Slappyto : 5/5 sur 1 note
Aucun commentaire !

L'appli Cours de Basse Débutants

Développé par slappyto