ConnexionConnexionInscription
B E A D G
185 connectés Sweepyto Guitare

Red Hot Chili Peppers - Slowly Deeply

Publié par le
02/06/2007
22455 vues
Moyen 3
Vitesse NormaleNormal speed Vitesse RalentieSlow down speed
G-|------------------------------|--------------------------------|
D-|------------------------------|--------------------------------|
A-|------------------------------|---------------------1----1h3---|
D-|--0----0--0-3-2--0--0--0-2h3--|--0----0--0-0-0--0-0----0-------|

G-|------------------------------|--------------------------------|
D-|------------------------------|--------------------------------|
A-|------------------------------|---------------------1----1h3---|
D-|--0----0--0-3-2--0--0--0-2h3--|--0----0--0-0-0--0-0----0-------|
Accordage : Drop D (on passe la corde de Mi en Ré).
Une ligne de basse bien efficace tirée d'une B-side des Red Hot Chili Peppers.
Pas de difficulté majeur, veillez à stoper comme il le faut les notes et faites attention aux hammers. Travaillez au clic car le placement n'est pas si simple au début.

0 Commentaires : réagissez !

1 2 3 4 5
0 notes
Aucun commentaire !

L'appli Cours de Basse Débutants

Développé par slappyto