ConnexionConnexionInscription
B E A D G
201 connectés Sweepyto Guitare

Muse - Jimmy Kane

Publié par le
04/07/2007
34967 vues
Moyen 3
Vitesse NormaleNormal speed Vitesse RalentieSlow down speed
G-|-----4-2---------2-----| 3 fois
D-|---------4-2-2h4-------|
A-|-2-2-------------------|
E-|-----------------------|

G-|-----4-2---------------|-----4-2---------2-----|
D-|---------4-2-2h4-------|---------4-2-2h4-------|
A-|-2-2-----------------2-|---2-------------------|
E-|-----------------------|-----------------------|

Un petit groove sympa tiré d'une B-Side de Muse, Jimmy Kane. Faites attention au hammer et faites attention à bien repartir sur le "et" du quatrième temps à la fin du cycle. Vous l'aurez compris, rien de compliqué.

0 Commentaires : réagissez !

1 2 3 4 5
2 notes
Notes pour Jimmy Kane - Muse - Cours de basse vidéo | Slappyto : 4/5 sur 2 notes
Aucun commentaire !

L'appli Cours de Basse Débutants

Développé par slappyto