ConnexionConnexionInscription
B E A D G
192 connectés Sweepyto Guitare

The Brothers Johnson - Mista' Cool

Publié par le
07/05/2011
12285 vues
Avancé 1
Vitesse NormaleNormal speed Vitesse RalentieSlow down speed
G -------------------------7h9-X--------------------------------------------
D ---7h9---7h5--------------------------------------------------------------
A -------------7-5-5h7----------4h5-----------------------------------------
E ---------------------0-X-----------3--------------------------------------
P P T T T T T P P T T

G -------------------------7h9-X--------------------------------------------
D ---7h9---7h5--------------------------------------------------------------
A -------------7-5-5h7----------4h5-----------------------------------------
E ---------------------0-X-----------3---5----------------------------------
P P T T T T T P P T T T

Bonne chanson pour se rendre compte de la réelle utilité du double slappé au pouce !
Pour cette partie de la musique, rien de bien compliqué une fois qu'on a compris le truc, le retour du pouce slappé se fait avec l'ongle, vous risquez de vous faire un peu mal si c'est la premiere fois que vous essayé cette technique, mais ca passera vite avec la pratique !
Bref éclatez vous, essayez de bien choper les hammer et le tour sera joué !  

La musique pour ce qui ne la connaisse pas :
http://www.youtube.com/watch?v=i-aPE8A7wLI  

Tags : slap hammer

1 Commentaire

1 2 3 4 5
3 notes
Notes pour Mista' Cool - The Brothers Johnson - Cours de basse vidéo | Slappyto : 4/5 sur 3 notes
#1
08/05/2011 20:14:27

Super sympa ce plan, merci  

0
+1

L'appli Cours de Slap Débutants

Développé par slappyto