ConnexionConnexionInscription
B E A D G
203 connectés Sweepyto Guitare

Jamiroquai - Blow your mind

Publié par le
30/03/2006
38645 vues
Débutant 3
Vitesse NormaleNormal speed Vitesse RalentieSlow down speed
G----|----7-----------7----------|-------------------|
D----|---------------------------|--------------7----|
A--0-|-5----5-5--0-5----5-5-6-7--|--7--7-----------0-|
E----|---------------------------|--------6--5-------|

G----7-----------7----------|---------------------|
D---------------------------|--------------7------|
A-5----5-5--0-5----5-5-6-7--|--7--7-----------(0)-|
E---------------------------|--------6--5---------|
Encore un riff qui tourne comme une horloge. Ce n'est pas très compliqué à mettre en place. Si vous avez une pédale wha - wha, c'est le moment de la brancher. Cependant, il ne faut pas s'exciter dessus et si vous avez fait le bon choix vous avez donc une wha manuelle ;-) Alors, tout en faisant ce riff, bougez légèrement la pédale sans coups brusques jusquà ce que vous trouviez le son et oscillez sensiblement d'avant en arrière sans perdre le point ou vous obtenez ce son spécifique ( tout un art lol ). N'oubliez pas que ce riff part juste avant le premier temps avec la corde de LA à vide.Jouez très brièvement et soignez les sauts de cordes, tonique/octave dès la première mesure.

0 Commentaires : réagissez !

1 2 3 4 5
0 notes
Aucun commentaire !

L'appli Cours de Slap Débutants

Développé par slappyto