ConnexionConnexionInscription
B E A D G
127 connectés Sweepyto Guitare

Rage Against The Machine - How I Could Just Kill A Man [ Artiste ]

Publié par le
14/01/2011
5873 vues
Moyen 2
http://www.youtube.com/watch?v=GR6GqcPd60U
    
        

Verse:
G|--------------------------------------------------------------------------|
D|--------------------------------------------------------------------------|
A|-0h3-5--------------------------------------------------------------------|
D|-------0-3-5-5-0----------------------------------------------------------|

Chorus:
G|--------------------------------------------------------------------------|
D|---3-------------------3h5p3----------------------------------------------|
A|-5---------3--------------------------------------------------------------|
D|-----0-3-5---0-0-0-0-0----------------------------------------------------|

G|--------------------------------------------------------------------------|
D|----4-2-------2-3-4-------------------------------------------------------|
A|--------4-2-0-------------------------------------------------------------|
D|-4------------------4-4-4-------------------------------------------------|



    
    

1 Commentaire

1 2 3 4 5
2 notes
Notes pour How I Could Just Kill A Man Basse Tab - (Rage Against The Machine) | Slappyto : 3/5 sur 2 notes
#1
14/01/2011 16:48:33

en pas droppé sa marche aussi mais il faut décalé d'une note
(soit 2 casse ) vers la gauche pour les droitiers
et X(0) pour les notes a vide

0
0