ConnexionConnexionInscription
B E A D G
141 connectés Sweepyto Guitare

Richard Bona - African cowboy [ Artiste ]

Publié par le
16/02/2011
6596 vues
Avancé 1
http://www.deezer.com/listen-5684271
    
        

African cowboy
Richard Bona
The ten shades of blues

fichier pdf http://www.filedropper.com/richardbonaafricancowboy
fichier guitar pro 5 http://www.filedropper.com/richardbonaafricancowboy_1

Un titre à la fois simple et compliqué, une base de blues, un jeu à la Bona plein de notes étoufées, de variations ryhtmiques, de signature ryhmique alambiquée

Cette tablature donne une idée du squelette du morceau, je n'ai pas la prétention ni le niveau pour retranscrire ce genre de rythme
écoutez la chanson et reportez vous à la partition pour copier les rythmes au mieux


Intro 
G||-----------------------|-----------------------------|
D||-----------------------|-----------------------------| 4 x
A||------------------5s-7-|-------------------------5-7-|
E||-----------------------|--0----xg3----xg5------x-----|

    
|------------------------|
|------------------------|
|-----------------3------|
|--0----xg3--------------|



Couplet 1
  G                          C                            G                      A                      
-------------------------|---------------------------|----------------------|------------------------|
-------------5---x--x----|---------------------------|----------------------|---------------------7--|
------xg5-------------5--|--3---xg5---------2--3--5--|-------5----7---------|-------7----5------x----|
--3----------------------|-------------xg3-----------|--3--------------7----|--5---------------------|


  G                        C                            C                         A                        
-----------------------|---------------------------|------------------------|------------------------|
--5--------------------|---------------------------|------------------------|------------------------|
-------5------------2--|--3---x------2---x-2-x-5---|--3----4---5----x-7--7--|--------5---------/3----|
------------3-----x----|--------3------------------|------------------------|--5---x------3----------|



Couplet 2
  G                         C                               G                      A                      
------------------------|------------------------------|---------------------|-----------------------|
--5---------------------|------------------------------|---------------------|--------------------7--|
-------5------------5-x-|--3-----5--------2--3g5--3g5--|------5----7---------|-------7----5-----x----|
------------3-----x-----|------------3--x--------------|--3-------------7----|--5--------------------|

  G                         C                                                 
-------------------------|-------------------------|
--5----------------------|-------------------------|
-------5-------------5-x-|--3---x------2------x-2--|
------------3------x-----|--------3----------------|



Refrain
	C			A			C				A
|------------------------|--------------------------|-----------------------|------------------------|
|------------------------|------------5--5----------|-----------------------|------------------------|
|--3----4---5----x-7--7--|--------5--------5-----5--|--3---4---5----x-7--7--|--------5------------5--|
|------------------------|--5---x-------------3-----|-----------------------|--5---x-----3----L------|



  C                         A                               C				a                 
|-------------------------|------------------------|------------------------|------------------------|
|-------------------------|------------------------|------------------------|------------------------|
|--3-----4---5----x-7--7--|--------5------------5--|--3----4---5----x-7--7--|--------5---------------|
|-------------------------|--5---x-----3----L------|------------------------|--5---x------3----0--3--|



cOUPLET 3
    C                      E                         C                      E   
|----------------------|-------------------------|----------------------|--------------------------|
|----------------------|-------------------------|----------------------|--------------------------|
|-------7---------9----|--7-------------------2--|-------7---------9----|--7-----------------------|
|--5---------7---------|-------7---0-0--2--3-----|--5---------7---------|-------7---0-0--2--3--3-0-|


 C                        E                      
------------------------|------------------------|-------------------------|
------------------------|------------------------|-------------------------|
-------7-------------5--|--7----6----5----4----3-|--L---------2----x---x---|
--5---------7---7-7-----|------------------------|-------------------x---L-|


Couplet 4                         Boucle                                                   
---------------------------|	|---------------------------|
---------------------------|	|---------------------------| 29x variations rythmiques libres
--7---x--------------7\----|	|---------------------7\----|
--------3----x-5-----------|	|----x------3----x-5--------|

    
--------4-----------------------|
--5-4-4---7-5-7-5-4-------------|
--------------------5-7-5-4-----|
--------------------------------|


Solo Banjo
         C                      E                         C                    
|----------------------|-------------------------|----------------------|
|----------------------|-------------------------|----------------------|
|-------7---------9----|--7----------7-----------|-------7--------------|
|--5---------7---------|-------7---x-----x-2--3--|--5---------7----7----|


                           C                                                                          
-----------------------|-----------------------|-------------------------|-----------------------|
-----------------------|-----------------------|-------------------------|--------------------2--|
--7--------7-----------|------7-------------5--|--7----6-----5----4----3-|--L--------2----x-x----|
------7--------x-2--x--|--5--------7---7-7-----|-------------------------|-----------------------|


Thème de l'intro  8 x                                                                                                           
----------------------------|--------------------------|
----------------------------|--------------------------| 3x
-----------------------x-7--|---------------------x-7--|
--0----xg3----xg5-----------|--x----3----xg5-----------|

    
|----------------------------|----------------------|
|----------------------------|----------------------|
|-----------------------x-7--|---------------5------|
|--0----xg3----xg5-----------|--x----3----5---------|



Couplet 5
  G                          C                            G                      A                       
-------------------------|---------------------------|---------------------|-----------------------|
-----------5-------------|---------------------------|---------------------|--------------------7--|
-------5-------x-x----2--|--3----xg5--------2--3--5--|------5----7---------|------7----5------x----|
--3----------------------|-------------xg3-----------|--3-------------7----|--5--------------------|


  G                        C                          C                         A                         
-----------------------|-------------------------|-----------------------|-------------------------|
--5--------------------|-------------------5-----|-----------------------|-----------5--x----------|
------5----------2--5--|--3---x-----2----x----2--|--3---4---5----x-7--7--|-------5--------5-----5--|
-----------3--5--------|--------3----------------|-----------------------|--5--x-------------3-----|


  C                         A                          C                          A                         
-----------------------|------------------------|------------------------|-------------------------|
-----------------------|------------------------|------------------------|-----------5--x----5-----|
--3---4---5----x-7--7--|-----x-5--------x-x--5--|--3---4---5----x-7--7-x-|-------5--------5-----5--|
-----------------------|--5--------3------------|------------------------|--5--x-------------------|


  C                         A                                                                                                         
-------------------------|-------------------------|
-------------------------|-------------------------|
--3-----4---5----x-7--7--|-------5-----------------|
-------------------------|--5--------3----x-x---3--|

Reprendre couplet 3 et la boucle du couplet 4

----------------
L - note liée
x - dead note
g - appogiature ou dead note


    
    

0 Commentaires : réagissez !

1 2 3 4 5
0 notes
Aucun commentaire !