ConnexionConnexionInscription
B E A D G
221 connectés Sweepyto Guitare

Muse - Plug In Baby [ Artiste ]

Publié par le
14/04/2011
9224 vues
Débutant 4
http://www.youtube.com/watch?v=RpLaG4v1UJo
    
        

MUSE ? PLUG IN BABY
Use Distortion

Verse
G|--------------      --------------     ---------------     
D|--------------      -----4-------4     ------5-------5     
A|-----5-----0-5  X2  -----------4--  X2 ------------5--   X2  
D|---0----0-0---      ---4----4-4---     ----5----5-5---     

Pre-chorus
G|-------------------------------------
D|-------------------------------------
A|-------------------------------------
D|---4-4-4-4-4-4-4-4-4-4-4-4-4-4-4-4---

Chorus
G|---------------------------------------------------------------------------------
D|---------------------------------------------------------------------------------
A|------------------------------4-5-4-0-2-2-2-2-2-2-2-2---------------------0------
D|---5-5-5-5-5-5-5-5-5-5-5-5-5--------------------------------4-4-4-2-4-4-4--------

Bridge
G|-------------------------------------------------------
D|-------------------------------------------------------
A|-----------------------------------5555555555555555----
D|---44444444444444445555555555555555
    
    

3 Commentaires

1 2 3 4 5
0 notes
#3
22/04/2011 16:24:38
ok merçi pour la corection c vrai que sa sonne mieux  bonne grate a toi solanin
0
0
#2
15/04/2011 22:57:16
euh, pardon, faute de frappe de ma part, t'as juste à remplacer le E par un D

Désolé :-)
0
0
#1
15/04/2011 22:56:04
Oyo
Une micro correction ( vraiment pas très importante   )
Tu as fait une faute de frappe dans le premier "verse", l'accordage est déjà en DADG, t'as juste à remplacer ça par un E et ce sera nickel

Bonne tab au passage  
0
0