ConnexionConnexionInscription
B E A D G
253 connectés Sweepyto Guitare

War - Low Rider [ Artiste ]

Publié par le
10/05/2011
4826 vues
Débutant 2
http://www.youtube.com/watch?v=ro4yhp9L6Ok
    
        

Tous le long de la musique.

G---------------------|
D-------------3--5353-|
A------1-3--5---------|
E-1-3-----------------|

G-------------------35-|
D-------------3--535---|
A------1-3--5----------|
E-1-3------------------|

G----------------------|
D-------------3--53575-|
A------1-3--5----------|
E-1-3------------------|

    
    

0 Commentaires : réagissez !

1 2 3 4 5
2 notes
Notes pour Low Rider Basse Tab - (War) | Slappyto : 5/5 sur 2 notes
Aucun commentaire !