ConnexionConnexionInscription
B E A D G
271 connectés Sweepyto Guitare

No Means No - Slugs are burning [ Artiste ]

Publié par le
05/06/2011
3137 vues
Débutant 1
http://www.youtube.com/watch?v=eRVfkSOpSl4
    
        

Slugs are burnung
No Means No


Simple, efficace, festif, à jouer avec l'énergie du punk

intro/couplet
    Bb                            Gm                          Bb                   G             Eb
G||-------------------------|-------------------------|-------------------------|--------------------------|
D||-------------------------|-------------------------|-------------------------|--------------------------|
A||-------------------------|-------------------------|-------------------------|--------------6--6--6-----|
E||--6----6--6--6--6--6-----|--3----3--3--3--3--3-----|--6----6--6--6--6--6-----|--3--3--3-----------------|




Refrain
    Ab                                               Eb
G||----------------------|----------------------|----------------------|----------------------|
D||----------------------|----------------------|----------------------|----------------------| 2X
A||----------------------|----------------------|--6----6----6----6----|--6----6----6----6----|
E||--4----4----4----4----|--4----4----4----4----|----------------------|----------------------|

    Ab                                             F
G||----------------------|----------------------|----------------------|----------------------|
D||----------------------|----------------------|----------------------|----------------------| 
A||----------------------|----------------------|----------------------|----------------------|
E||--4----4----4----4----|--4----4----4----4----|--1----1----1----1----|--1----1----1----1----|




Solo
     C                        F
G||----------------------|----------------------|
D||----------------------|----------------------|4X
A||--3----3----3----3----|----------------------|
E||----------------------|--1----1----1----1----|
    
    

0 Commentaires : réagissez !

1 2 3 4 5
0 notes
Aucun commentaire !