ConnexionConnexionInscription
B E A D G
131 connectés Sweepyto Guitare

The Staple Singers - I'll Take You There [ Artiste ]

Publié par le
23/06/2011
4174 vues
Débutant 3
http://www.deezer.com/listen-1089521
    
        

I'll take you there
The Staple Singers



Un petit groove en boucle qui demande rapidité et endurance
Pour le faire sonner bien funky il faut déplacer la main sur les shift
                                                       
G||----------------------------|------------------------||
D||----------------------------|-------3----------------||
A||--3-------3---------3-------|------------------3-----||
E||----------------3-5----5-3--|--1---------3--5-----5--||
                              shift         shift



   Solo
G||----------------14--12--|--10-----------------------|------------------------|--------------------|
D||--14--------------------|------10---------------12--|--10----------------10--|--10----------------|
A||------------------------|----------8--------10------|------10--------12------|--------------------|
E||------------------------|---------------------------|----------8-------------|--------------------|



G||----------------14--12--|--10-----------------------|------------------------|--------------------|
D||--14--------------------|------10---------------12--|--10--------------------|--------------------|
A||------------------------|----------8--------10------|------10----------------|--------------------|
E||------------------------|---------------------------|----------8--------8----|--8--------3--5--3--|

    
    

0 Commentaires : réagissez !

1 2 3 4 5
1 note
Notes pour I'll Take You There Basse Tab - (The Staple Singers) | Slappyto : 4/5 sur 1 note
Aucun commentaire !