ConnexionConnexionInscription
B E A D G
146 connectés Sweepyto Guitare

Iron maiden - Blood On The Worlds Hands [ Artiste ]

Publié par le
23/11/2010
6306 vues
Avancé 2
http://www.youtube.com/watch?v=a9Jm9pt4L1Q
    
        

A. Intro

|------------(7)---------(7)------(7)--------(7)-------(7)--(5)-------|
|--------(7)---------(7)--------(7)-------(7)-------(7)--------(5)----|
|----(7)---------(7)----------(7)------(7)-------(7)--------------(5)-|
|--0------------------------------------------------------------------|

|------------(7)---------(7)------(7)-------(7)--------(5)-----(5)-----|
|--------(7)---------(7)--------(7)------(7)-------(7)----(5)----(5)---|
|----(7)---------(7)----------(7)-----(7)-------(7)----------(5)---(5)-|
|--0-------------------------------------------------------------------|

|----------------------4-7-9----9--14-14-14-14-12-11----------------|
|------------------4-7-------------------------------12-12-12-12-11-|
|--------------5-7--------------------------------------------------|
|--0-0---0-5-7------------------------------------------------------|

|------------------------------------------(7)---------(7)-----(7)---------(7)-|
|--------------------------------------(7)---------(7)-------(7)-------(7)-----|
|--12-12-12-12-11------------------(7)---------(7)---------(7)-----(7)---------|
|-----------------12-8-8-8-8-7-3-0---------------------------------------------|

|---------(7)--(5)-------------------(7)---------(7)-----(7)-|
|-----(7)----------(5)-----------(7)---------(7)-------(7)---|
|-(7)------------------(5)---(7)---------(7)---------(7)-----|
|--------------------------0---------------------------------|

|---------(7)--------(5)---------(5)-----9---5---7---4---5-|
|-----(7)--------(7)-----(7)-(7)--------9---5---7---4---5--|
|-(7)---------(7)----------------------7---3---5---2---3---|
|----------------------------------------------------------|

|----9---5---7---4--5---------------(7)--------(7)-----(7)---------(7)-|
|---9---5---7---4---------------(7)--------(7)-------(7)-------(7)-----|
|--7---3---5---2---3---0----(7)--------(7)---------(7)-----(7)---------|
|-------------------------0--------------------------------------------|

|---------(7)--(5)-----------------(7)---------(7)-----(7)---------(7)-|
|-----(7)---------(5)----------(7)---------(7)-------(7)-------(7)-----|
|-(7)----------------(5)---(7)---------(7)---------(7)-----(7)---------|
|------------------------0---------------------------------------------|

|---------(5)---(5)----------------------------------------------|
|-----(7)----(5)----(5)---------------------5-4------------7-6---|
|-(7)-------------------(5)----3-2----5-4--------5---7-6-------7-|
|----------------------------------3------5--------------7-------|

|-------------------------------------------------|
|--5-4----10-9-----7-6----12-11-----14-13---------|
|------5-------10------7--------12--------14\2----|
|-----------------------------------------------0-|

|----------(7)---------(7)------(7)--------(7)-------(7)--(5)-------|
|------(7)---------(7)--------(7)-------(7)-------(7)--------(5)----|
|--(7)---------(7)----------(7)------(7)-------(7)--------------(5)-|
|-------------------------------------------------------------------|

|------------(7)---------(7)------(7)-------(7)--------(5)-----(5)-----|
|--------(7)---------(7)--------(7)------(7)-------(7)----(5)----(5)---|
|----(7)---------(7)----------(7)-----(7)-------(7)----------(5)---(5)-|
|--0-------------------------------------------------------------------|

|-------9-----5-----7-----4-----5-|
|-----9-----5-----7-----4-----5---|
|---7-----3-----5-----2-----3-----|
|---------------------------------|

|-------9-----5-----7-----4-----5-||
|-----9-----5-----7-----4-----5---||
|---7-----3-----5-----2-----3-----||
|---------------------------------||

B. Pre-Verse

|----------------------------------------------------------------------------------|
|o--------------------------------------------------------------------------------o|
|o-7-7--7-7-7-3--3--3--5-5--5-5-5-3--3--5--7-7--7-7-7-3--3--3--5-5--5-5-5-2--2--5-o|
|----------------------------------------------------------------------------------|

C. Verse

|----------------------------------------------------------------------------------|
|o--------------------------------------------------------------------------------o|
|o-7-7--7-7-7-3--3--3--5-5--5-5-5-3--3--5--7-7--7-7-7-3--3--3--5-5--5-5-5-2--2--5-o|
|----------------------------------------------------------------------------------|

D. Chorus
                                                   x4
|---------------------------------------------------|
|o-2-----------------------------------5-4-----4---o|
|o---3-2-------3-2---------5-4-------------5-0---5-o|
|--------3-0-0-----3-0-0-0-----5-0-0-0--------------|

E. Interlude

|--------------------------------------2----------------------------------------------2----------|
|o-----2-3-2-------2-3-2-------2-3-2-----3-2-0-3------2-3-2-------2-3-2-------2-3-2-----3-2-0-2-o|
|o-----------3-----------3-----------3----------------------3-----------3-----------3-----------o|
|--0-0---------0-0---------0-0--------------------0-0---------0-0---------0-0--------------------|

F. Guitar Solo                _____________________________ _____________________________
                             |1,3                          |2,4.
|----------------------------|-----------------------------|----------------------------|
|o---------------------------|----------------------------o|----------------------------|
|o---------7--x-x-5--x-3-3-3-|---------7--x-x-5--x-0-0-0--o|---------7--x-x-5--x-2-2-2--|
|--0-0-0-0-------------------|-0-0-0-0---------------------|-0-0-0-0--------------------|

|---------------------------------------------------------------|
|-----------------5-4---7-6-----------------------5-4---7-6-----|
|-3-2-----5-4---------5-----7-5-0-3-2-----5-4---------5-----7\--|
|-----3-0-----5-0---------------------3-0-----5-0---------------|
                              _____________________________ ____________________________
                             |1,3                          |2,4.
|----------------------------|-----------------------------|----------------------------|
|o---------------------------|----------------------------o|----------------------------|
|o---------7--x-x-5--x-3-3-3-|---------7--x-x-5--x-0-0-0--o|---------7--x-x-5--x-2-2-2--|
|--0-0-0-0-------------------|-0-0-0-0---------------------|-0-0-0-0--------------------|
 ___________________________________ ________________________________
|1,2,3.                             |4.
|-----------------------------------|-------------------------------||
|o-----------------5-4---7-6-------o|-----------------5-4---7-6-----||
|o-3-2-----5-4---------5-----7-5-0-o|-3-2-----5-4---------5-----7\--||
|------3-0-----5-0------------------|-----3-0-----5-0---------------||

G. Bridge

|-----------------------------------------------------------------------------|
|o----------------------------------------------------------------------------|
|o-7-7--7-7--7--7-7--7-7--7--3-3--3-3--3--3-3--3-3--3--5-5--5-5--5--5-5--5-5--|
|-----------------------------------------------------------------------------|

                           x3
|---------------------------|
|--------------------------o|
|-2-2--2-2--2--3-3--3-3--5-o|
|---------------------------|

H. Out-Chorus                           ______________ _____________
                                       |1,2,3,4,5,6.  |7.
|--------------------------------------|--------------|------------||
|o-2-----------------------------------|-5-4-----4---o|-5-4--------||
|o---3-2-------3-2---------5-4---------|-----5-0---5-o|-----5-0-5--||
|--------3-0-0-----3-0-0-0-----5-0-0-0-|--------------|------------||

Order:

1.  A. Intro
2.  B. Pre-Verse
3.  C. Verse
4.  D. Chorus
5.  C. Verse
6.  D. Chorus
7.  E. Interlude
8.  F. Guitar Solo
9.  G. Bridge
10. E. Interlude
11. C. Verse
12. H. Out-Chorus

Tablature compliquer les notes entre parenthèses sont à faire en harmonique et bien sur le tous au médiateur
    
    

2 Commentaires

1 2 3 4 5
5 notes
Notes pour Blood On The Worlds Hands Basse Tab - (Iron Maiden) | Slappyto : 4/5 sur 5 notes
#2
30/12/2010 16:10:08
Steve harris joue aux doigts, pas au mediator !
0
+2
#1
16/12/2010 15:04:12

"Tablature compliquer les notes entre parenthèses sont à faire en harmonique et bien sur le tous au médiateur" 

Très sympa pour la tablature, par contre, ce serait bien de corriger le français...  

 

Tablature compliquée les notes entre parenthèses sont à faire en harmonique et bien sur le tout au médiator

0
0