ConnexionConnexionInscription
B E A D G
120 connectés Sweepyto Guitare

Red Hot Chili Peppers - Factory of faith (intro) [ Artiste ]

Publié par le
04/10/2011
6645 vues
Moyen 1
http://www.youtube.com/watch?v=1swaZbPZL-g
    
        

Le groove principal du titre

G||-----------------------|--------------------------|-----------------------|-----------------5-------|
D||----------3----3-------|-----5-----5--3--4--5-----|----------3----3-------|-----7-----7--------5----|
A||--5----5---------------|-----------------------0--|--5----5---------------|--------------3----------|
E||------------------6----|--6-----------------------|------------------6----|--6----------------------|


     
G||-----------------------|--------------------------|-----------------------|-------------------------|
D||----------7----7-------|-----5-----5--3--4--5-----|----------7----7-------|-------------------------|
A||--5----5---------------|-----------------------0--|--5----5---------------|-------------3----3------|
E||------------------6----|--6-----------------------|------------------6----|--6--3----3--------------|

    
    

0 Commentaires : réagissez !

1 2 3 4 5
3 notes
Notes pour Factory Of Faith (intro) Basse Tab - (Red Hot Chili Peppers) | Slappyto : 4/5 sur 3 notes
Aucun commentaire !