ConnexionConnexionInscription
B E A D G
181 connectés Sweepyto Guitare

Coldplay - In My Place [ Artiste ]

Publié par le
06/12/2010
15668 vues
Débutant 2
http://www.youtube.com/watch?v=IgSEgwmF-JY
    
        

**********************
Coldplay : In My Place
**********************

Intro :
 |: 4x   :|
G|--------|
D|--------|
A|--------|
E|--------|

Verse :
G|--------|--------|--------|--------|--------|--------|--------|--------|
D|--------|--------|--------|--------|--------|--------|--------|--------|
A|--------|--------|4------4|-77-----|--------|--------|4------4|-77-----|
E|5------5|-44-----|--------|--------|5------5|-22-----|--------|--------|

Verse
Chorus :
 |: 3x                              :|
G|--------|--------|--------|--------|--------|--------|--------|--------|
D|--------|--------|7--9--7-|6-------|--------|--------|--------|--------|
A|5---5--5|-55---7-|--------|----7---|5---5--5|-55---56|7---7--7|-77-----|
E|--------|--------|--------|--------|--------|-----5--|--------|--------|

Bridge :
G|--------|--------|--------|--------|--------|--------|--------|--------|
D|--------|--------|--------|--------|--------|--------|--------|--------|
A|--------|--------|4------4|-77-----|--------|--------|4------4|-77-----|
E|5------5|-44-----|--------|--------|5------5|-22-----|--------|--------|

Verse
Chorus
Bridge 2 :
 |: 2x                                                                  :|
G|--------|--------|--------|--------|--------|--------|--------|--------|
D|7-------|6-------|--------|--------|7-------|4-------|--------|--------|
A|--------|--------|4-------|7-------|--------|--------|4-------|7-------|
E|--------|--------|--------|--------|--------|--------|--------|--------|

Verse
Outro :
 |: 10x  :|
G|--------|
D|--------|
A|+-------|
E|--------|

Visit http://basse.over-blog.com for other bass tabs.
Visitez http://basse.over-blog.com pour d'autres tablatures pour basse.

    
    

1 Commentaire

1 2 3 4 5
3 notes
Notes pour In My Place Basse Tab - (Coldplay) | Slappyto : 3/5 sur 3 notes
#1
13/02/2013 21:35:28
merci tres sympa comme grove pour commencé
0
0