ConnexionConnexionInscription
B E A D G
182 connectés Sweepyto Guitare

Steps Ahead - Sumo ( Intro et 1er Thème) [ Artiste ]

Publié par le
21/03/2012
3668 vues
Avancé 3
http://www.youtube.com/watch?v=YZgQUZDUvDs
    
        

G|----0---4--------------6------------3--4--5------------------0--3--4-------------2-----1---1-|
D|--0---0----6---------------3----------------6-----6-------0--------------0----4---- 3----0---|
A|---------------4---6----------4----------------6---------------------- 3---2-----------------|
E|---------------------------------------------------------------------------------------------| 

G|----0---4--------------6------------3--4--5------------------0--3--4-------------2-----1-------|
D|--0---0----6---------------3----------------6-----6-------0--------------0----4---- 3----0-0-2-|
A|---------------4---6----------4----------------6---------------------- 3---2-------------------|
E|-----------------------------------------------------------------------------------------------| 



Cette tab correspond à la ligne de basse à partir de 0:14.
Relevé par mes soins. 
Ligne bien atonale et pas évidente au tempo, Bonne chance !
    
    

2 Commentaires

1 2 3 4 5
1 note
Notes pour Sumo ( Intro Et 1er Thème) Basse Tab - (Steps Ahead) | Slappyto : 5/5 sur 1 note
#2
07/12/2013 10:59:38
Exact !!! Ça m'a sauté aux oreilles en réécoutant ( au moins ça prouve que l'oreille progresse avec les années ^^). Je corrige ça ! Merci !!
0
+1
#1
07/12/2013 10:46:49
Il me semble bien que le F de la 15ème note du thème soit plutôt un Eb, ça me paraît plus logique dans l'harmonie et à mon oreille, si tu veux bien vérifier... ,)
0
+1