ConnexionConnexionInscription
B E A D G
239 connectés Sweepyto Guitare

Muse - New Born [ Artiste ]

Publié par le
16/10/2012
6890 vues
Moyen 1
http://www.youtube.com/watch?v=qhduQhDqtb4
    
        

Accordage en Drop D

G||---9----||
D||----7-9-|| 10x
A||-7------||
D||--------||
       
G|---5-------5-------4------4-------8-------8-----|
D|-----3-5-----3-5-----2-4----2-4-----6-8-----6-8-|
A|-3-------3-------2-------2------6-------6-------|
D|------------------------------------------------|


G|---------------------------------|
D|---------------------------------|
A|-33333333111111112222222222222222|
D|---------------------------------|

Solo 

G|----------------------------------------------------------------------|
D|----------------------------------------------------------------------|
A|--------------------------------------------------------------2-2-2-2-|
D|-2-2-2-2-5-2-5-6-7-7-7-7-10-7-10-11-12-0-0-12-0-0-3-4-5-5-5-5---------|


G|-----5-----5-----3---3-----4-----4------4----4|
D|----------------------------------------------|
A|-3333-33333-1111--1111--2222--2222--2222--2222-|
D|----------------------------------------------|

CHORUS – x2
G|------------------------------5----3-----4-----4--|
D|--------------------------------------------------|
A|-------000-3-555-------2-3333--1111--2222--2222---|
D|-222-5-----------3-555----------------------------|


    
    

1 Commentaire

1 2 3 4 5
0 notes
#1
16/10/2012 16:53:54
Petite correction pour le couplet : 

G|---5-------5---------4---------4---------8-------8-------| D|-----4-5-----4-5------4-5-------4-5------7-9-----7-9-| A|-3-------3---------2--------2----------6--------6--------| D|------------------------------------------------------------|
0
0