ConnexionConnexionInscription
B E A D G
98 connectés Sweepyto Guitare

Red Hot Chili Peppers - Road trippin' [ Artiste ]

Publié par le
13/11/2012
4418 vues
Débutant 2
http://www.youtube.com/watch?v=11GYvfYjyV0
    
        

G|----------------5---------|----------------5----------|
D|--2-2-2-5-4-2---------5-4-|--2-2-2-5-4-2--------------|
A|--------------3---3-2-----|--------------3---3-2------|
E|--------------------------|----------------------3-2--|

G|----------------------------------------------| (x2)
D|----------------------------------------------|
A|--0--0--0-0--2--2--2-2--3--3--3-3--5--5--5-5--|
E|----------------------------------------------|


G|-----------|
D|-----------|
A|--7--3-5---|
E|---5-------|
    
    

0 Commentaires : réagissez !

1 2 3 4 5
0 notes
Aucun commentaire !