ConnexionConnexionInscription
B E A D G
219 connectés Sweepyto Guitare

Chico Buarque - Essa moça tá diferente [ Artiste ]

Publié par le
28/02/2013
8888 vues
Moyen 1
http://youtu.be/mLk4EH9FWwI
    
        

Essa moça tá diferente
Chico Buarque

(pdf et gp5 disponible sur tababass http://junk1000.free.free.fr/menutabs.html)

Intro

G||--------------|----------------|--------------|--------------|
D||--9---x-------|----------------|--9--9--9-----|------7-9---9-|
A||--------9---9-|--10---10-9---9-|------------9-|--------------|
E||--------------|----------------|--------------|--------------|

G||--------------|-------------|--------------|------------|
D||------------7-|------7-5----|--5--5--5---5-|--4---------|
A||--7---7-------|-------------|--------------|------------|
E||--------5-----|-------------|--------------|------------|


Couplet (répéter x fois)

     Si m                                                            
G||--4-------------|-------------|------------------|---------------|
D||-------4--------|-------------|------------------|---------9--9--|
A||----------5--2--|-------------|-----------7---9--|-------9-------|
E||----------------|--3---3-2----|--2-7-------------|---------------|


                    G                              F#                
G||--------------|---------------|--------------|--------------|
D||--------7---7-|-------5----5--|--5------5----|--4---4-4---4-|
A||--7---7-------|-----5----5----|-------5----5-|--------------|
E||--------------|---------------|--------------|--------------|


Refrain 

c'est +/- comme le refrain

    
    

0 Commentaires : réagissez !

1 2 3 4 5
0 notes
Aucun commentaire !