ConnexionConnexionInscription
B E A D G
188 connectés Sweepyto Guitare

Keni Burke - Keni Burke - Risin’ To The Top [ Artiste ]

Publié par le
21/05/2013
3312 vues
Débutant 1
    
        

Ver.1

G|----------------------------------------0-
D|-0-1-0-1--3-------5----0-1-0-1--3---------
A|--------------3---------------------3-----
E|------------------------------------------


Ver.2

G|--------------------------------------------0-
D|-0-1-0-1-0--3-------5----0-1-0-1-0--3---------
A|----------------3-----------------------3-----
E|----------------------------------------------


    
    

0 Commentaires : réagissez !

1 2 3 4 5
0 notes
Aucun commentaire !