ConnexionConnexionInscription
B E A D G
294 connectés Sweepyto Guitare

Deluxe - Shoes [ Artiste ]

Publié par le
19/10/2015
15250 vues
Débutant 2
http://www.deezer.com/track/107740236?utm_sourc...
    
        

G -----------------------------------
D -----------------------------------  2X
A --5-55-33-33-22-22-11-1-0----------
E -----------------------------------

G -----------------------------------
D -----------------------------------  4X
A -5---5-8-3-33----------------------
E ---5----------3-33-6-5-5-----------

G ----------------------
D ----------------------
A -5-3-33----------3-5--
E --------3-33-6-5------

G -----------------------------------
D -----------------------------------  3X
A -55-3-33----------3-5-------------- 
E ---------3-33-6-5------------------

G -----------------------------------
D -----------------------------------  4X
A -5---5-8-3-33----------------------
E ---5----------3-33-6-5-5-----------

G -----------------------------------
D -----------------------------------
A -5---55-3-----3-33----------3-5----
E ---5------5-3------3-33-6-5--------

G -----------------------------------
D -----------------------------------
A -55-3-33----------3-5-------------- 
E ---------3-33-6-5------------------

G -----------------------------------
D -----------------------------------  4X
A --5-55-33-33-22-22-11-1-0----------
E -----------------------------------

G -----------------------------------
D -----------------------------------  5X
A -5---5-8-3-33----------------------
E ---5----------3-33-6-5-5-----------
    
    

0 Commentaires : réagissez !

1 2 3 4 5
0 notes
Aucun commentaire !