ConnexionConnexionInscription
B E A D G
270 connectés Sweepyto Guitare

Bassiste de metallica

#1
31/05/2004 11:58:03
Salut a vous tous. Ptete ke vous vous souvenez d'une video k'un mec ki hesitai entre Basse et guitare avai déposé ds un forum. SI c le cas, kelkun peu me donner la tablature ? ca serai sympa en ce week end de pentecote
Bon week end a tous
0
0
#2
31/05/2004 11:58:27
http://perso.wanadoo.fr/nagroll/blog/newsted.mp...

voila c cette adresse ou ya la video
0
0
#3
31/05/2004 11:59:04
Newsted ct le nom de la vidéo?
va savoir si ya une tab! ils ont peut etre fait ca juste pour ce concert, enfin, je suis pas un spécialiste de metallica. au pire, tu trouves la tab à l oreille, ca peut etre intéressant
0
0
#4
31/05/2004 11:59:50
Newsted ct le nom de la vidéo?
va savoir si ya une tab! ils ont peut etre fait ca juste pour ce concert, enfin, je suis pas un spécialiste de metallica. au pire, tu trouves la tab à l oreille, ca peut etre intéressant
0
0
#5
31/05/2004 12:01:49
c cke je pensai faire, mais chui un peu flemmard. Si j arrive je vous filerez ma tab si vous voulez
0
0
#6
31/05/2004 12:03:14
ok, mais u conseil cherche les tabs a l oreille, c est un super entrainement et ca peut t aider a mieux connaitre ton manche
0
0
#7
31/05/2004 12:41:13
Je l'ai cette video, et j'ai trouver la tab a l'oreille!
(le debut parcequ'apres c'est friend of misery)
le probleme c'est que je sais pas comment la mettre sur gp4,!!
0
0
#8
31/05/2004 12:42:13
il est accorde deja un demi-ton plus bas.
mais sinon c'est simple a trouver (en plus ya des gros lans sur ses doigts lol)
0
0
#9
31/05/2004 12:45:38
tiens voila le lien --->

http://http://www.mysongbook.com/tab-tab_download-id_tablature=36839.htm

ralala c jeunes de nos jour plus capable de chercher une tab.
0
0
#10
31/05/2004 12:46:50
Slappyto
0
0
#11
31/05/2004 12:47:29
Mxtabs [ http://www.mxtabs.net]
Artist: Metallica
Song: Bass/Guitar Doodle
Album: Cunning Stunts

Tuning: Tune down ? step (Low to high: Eb, Ab, Db, Gb)

* = Harmonic

Rhy. Fig. 1:
Gb||-----14-16-14-13---14-16-14-13---13h14-13-11----------14--------------14-----------||
Db||?--------------------------------------------14-11--------11------11------11------?||
Ab||?--------------------------------------------------12---------12-------------12---?||
Eb||--0-----------------------------------------------------------------------------0--||
(Last note only 1st time)

Rhy. Fig. 2a:
Gb|------11-------11---------11---------11--------------12------12---------12------|
Db|-0-0--------12----0----12----0----12----12--------9-----9--------9---------9----|
Ab|---------12---------12---------12----------12-10----------10--------10-------10-|
Eb|--------------------------------------------------------------------------------|

Gb|----11--------11----------11------11-----------12------12-----------------|
Db|-0---------12----0-----12----0--------------9-----9--------9--------------|
Ab|--------12----------12---------12----12-10----------10--------10--10-10\7-|
Eb|--------------------------------------------------------------------------|

- Repeat Rhy. Fig. 1

Rhy. Fig. 2b:
Gb|------11-------11----------11----------11--------------12------12---------12------|
Db|-0-0--------12----12----12----12----12----12--------9-----9--------9---------9----|
Ab|---------12----------12----------12----------12-10----------10--------10-------10-|
Eb|----------------------------------------------------------------------------------|

Gb|----11--------11-------11---------11-----------12------12-|
Db|-0---------12----0--12----0----12-----------9-----9----9--|
Ab|--------12------------------12-------12-10----------10-10-|
Eb|----------------------------------------------------------|

Rhy. Fig. 3a ("My Friend Of Misery":
Gb||-----10------10------14------12------10------9------9------12------10------10----||
Db||?-------12------12------12------12-------------10-----10------10------10--------?||
Ab||?-0--------0-------0-------0-------0----0-0-------0------0-------0-------0----0-?||
Eb||---------------------------------------------------------------------------------||
(Play 5 times, guitar enters after 2nd time)

Rhy. Fig. 3b:
Gb|----10------10------14------12------10------9------9------12------10------|
Db|-------12------12------12------12-------------10-----10------10------10---|
Ab|-0--------0-------0-------0-------0----0-0-------0------0-------0-------0-|
Eb|--------------------------------------------------------------------------|

Rhy. Fig. 4:
Gb|----7---4----5------7-----5---||------7---4-----5------7-----5----||
Db|------5---5-----7-----7-----7-||?---5---5---5------7-----7-----7-?||
Ab|-0----------------0-----0-----||?-0-----------0------0-----0-----?||
Eb|------------------------------||----------------------------------||

Gb|-----7--4----------------------9--------9----|
Db|---5-------5--7--5----------9-----9------9---|
Ab|-0----------------------7------------7----7--|
Eb|--------------------0----------------------0-|

Rhy. Fig. 5 ("Welcome Home (Sanitarium)":
* * * * * *
Gb|-----------------------------------------------------------------------|
Db|-----------------------------------------------------------------------|
Ab|-19----19----19----19----------------------------------5h7-----5h7-----|
Eb|-------------------------12-12--------10/12\--0-------------7------7-3-|
(Listen to guitar to get the timing)

Gb|-----9---5---------7---------------------9-----5---------7-------------------|
Db|-----------5-----7------7------------------9-----5-----7---7----7--------7-5-|
Ab|---7---------3-5-----------------------7-----------3-5-----------------------|
Eb|-0--------------------5---5-3--3-5-3-0------------------------5---5-3--3-----|

Gb|-----9---5---------7---------------------9---5---------7---------------|
Db|-----------5-----7------7----------------------5-----7-----7---5---7-5-|
Ab|---7---------3-5-----------------------7---------3-5-------------------|
Eb|-0--------------------5---5-3--3-5-3-0---------------------------------|

Rhy. Fig. 6 ("Nothing Else Matters":
Gb|-------9-----------9-----------9-----------9---9-12-9----12-16-12-||
Db|-----9---9-------9---9-------9---9-------9---9--------------------||
Ab|---7-------7---7-------7---7-------7---7--------------------------||
Eb|-0-----------0-----------0-----------0----------------------------||

0
0
#13
31/05/2004 12:53:11
hey chui content c'est ce ke jai trouver tout seul comme un grand lol
0
0
#14
31/05/2004 14:20:03
tro bonnn moi etre content
0
0
#15
31/05/2004 21:20:34
merci d'avoir demandé cette vidéo! ell est tout simplement magnifique! et merci pour la tab!

'est vraiment un bon forum ici!

0
0
#16
31/05/2004 22:12:37
Ouai il est classe ce morceau (il rend mieu au mediatore qd meme), et meme pas trop dure (comparer a Anesthesia de Cliff Burton)
0
0
#17
31/05/2004 23:32:40
dommage que ca se joue avec un demi ton en moins :/
0
0
#18
01/06/2004 10:16:23
17

Essaye en standart ça rend aussi (d'ailleur je croi que ça lui ai aussi arriver de le jouer en standart)
0
0
#19
01/06/2004 11:07:47
avec les notes sur les cordes à vide ca doit sonner faux :/
0
0
#20
01/06/2004 13:41:22
G un pb... Comment faites vous pour ne pas faire sonner les cordes à vides "trop longtemps" dans la 2 eme partie du morceau? les miennes resonnent trop et on entends plus rien...

:S

Manu
0
0