ConnexionConnexionInscription
B E A D G
145 connectés Sweepyto Guitare

Histoire de melody nelson

#1
23/04/2005 03:43:00
Bon je vais pas faire l'eloge de cet album de gainsbourg, ils est tout simplement magnifique et a posseder absolument, c'est entendu

mais en plus il est d'un plus haut interet au niveau bassistique (et composition biensur)

alors mysongbook propose l"a ballade de melody nelson ainsi" que " ah melody" (a bosser pour tous bien evidemment) mais je recherche la tab de "melody" (la premiere chanson de l'album) ou y'a quasiment qu'une basse quei fait tout

donc voila si vous avez la tab de "melody" (ou d'une autre chanson de l'album) prevenez moi!
et si vous pouvez mettre le morceau en ligne pour en faire profiter tout le monde ca serais super!

Slappyto
0
0
#2
23/04/2005 12:52:44
up...

Mais j'crois que le sujet a déjà été posté pas mal de fois
0
0
#3
23/04/2005 12:59:53
Tu trouvera jamais une tab correcte pour ctte chanson, y a une grosse part d'impro dedans...Si j'étais toi je l'écouterai en boucle et essaierai de jouer par dessus.

Sinon le riff de debut est simple si je me souviens bien, si t'y arrives pas je te le tablerai.
0
0
#4
23/04/2005 15:34:34
et satchmo. comme on se retrouve ! j'avais aussi apporté melody a mon prof, et il m'a dit : que de l'impro, je te donne juste le riff de base et travvaille un peu : (jessaie de men souvenir sans basse) :

-------1312---------------9109-----------------------------------------------
----------------------0-------------9\\\\\-----------------------------------
------------\10-----10----------/12------------------------------------------
0----------------------------------------------------------------------------



je suis plus sur du 9-10-9 sur la corde de sol, cest peut etre 10-11-10 ou 8-9-8 mais je crois que c'est ca !

gainsbourg for ever avec cet album énorme !! (je vais aller voir les tab de my songbook)
0
0
#5
23/04/2005 15:35:42
je ne sais pas du tout ce que cest que ce point que j'ai reussi a foutre, mais en tout cas faut pas en tenir compte !
la vraie tab est :

-------1312---------------9109-----------------------------------------------
----------------------0-------------9\\\\\-----------------------------------
------------\10-----10----------/12------------------------------------------
0----------------------------------------------------------------------------

0
0
#6
23/04/2005 15:36:52
bon :


------1312-------------------9109-
-------------------------0--------
-----------\10-------10-----------
--------------------------------
voila
0
0
#7
23/04/2005 23:11:43
lol ok merci a tous (decidement the dude!)


ouai c'est de l'impro, mais une impro enregistrée , si on la rejoue c'est plus de l'impro lol...

bah je vais voir ca a l'oreille

et up pour les mecreants qui n'ont pas encore cet album (acheté ou volé of course lol)
0
0