ConnexionConnexionInscription
B E A D G
305 connectés Sweepyto Guitare

tab time won't wait

#1
09/10/2007 19:08:26
Salut à tous,

Histoire de me chauffer les doigts j'ai envoyé l'album dynamite dans la chaine et roule.

Seulement il me manque le plus dure : time won't wait

J'ais fait google et ses comparses forums divers et variés mais pas trouvé, donc si un slappytien la possède...

Merci et bon groove
0
0
#2
09/10/2007 19:40:26
Euuu
Laisse moi le temps d'revoir un peu c'que ça donne à l'arrache
0
0
#3
09/10/2007 19:55:07
G|-----------------------------------|--------------------------------|
D|-----------------------------------|--------------3H5PO3------------|
A|-------5-5---5--------5-5---5H7PO5-|--------5-5----------5H7PO5-----|
E|-5-5-7-----5----5-5-7-----5--------|--5-5-7-----5-------------------|

Juste la variation pour l'intro
0
0
#4
09/10/2007 19:59:40
G|----------------------------------------------------------------|
D|---3-1-3-----10-8-10------8-6-8---------6---4-4-----------------|
A|---------1----------------------------4---4---------------------|
E|-1---------8---------8--6-------6-2-2---------------------------|

Jle joue comme ça parce que ça sonne mieux sur ma basse que si j'jouait tout sur la corde de La lol.

Après pour le confort, c'est ptete plus pratique de jouer tout dans la même zone.
0
0
#5
09/10/2007 20:04:14
Et le couplet

G|--------------------------------------------------|----------------|
D|---6-8--------------6-8------------------3--------|----------------|
A|-----------3H5-3-------------3H5-5-3-4-5----------|----------------|
E|-6-----3-4--------4------3-4----------------------|----------------|
0
0
#6
09/10/2007 20:05:40
Bon ça donne à peu près ça
Après ya toutes les ptites variantes et tout.
Ah et I manque un break aussi, vais l'rajouter taleur
0
0
#7
09/10/2007 20:14:54

Nickel, merci

Je m'y colle

0
0