ConnexionConnexionInscription
B E A D G
314 connectés Sweepyto Guitare

Red hot Chili Peppers - Intro Throw Away Your Television (live rock Odyssey 2004)

#1
27/07/2008 23:11:23
 Bonsoir est-ce que quelqu'un peut me corriger s'il arrive à trouver plus précis que moi merci


G|-----------------------5-7-5----------------------------------------------------------------
D|-------------5-----7-5-------7-5---5-6-7----7---7--5----------------------------------------
A|--0-3-5--6-7----0----------------7--------0---7------7--5--3--0--3--5--3--0--3--5--3--------
E|--------------------------------------------------------------------------------------------
G|------------------------------------------------------------------------------------------
D|------------------------------------------------------------------------------------------
A|-0--5--3--0--5--3--0--5--3--0-2h3p2--0-2h3p2----------------------------------------------
E|----------------------------------------------3-3-----------------------------------------
G|--------------------------------------------------------------5----7--5---5--7/9--9----
D|-----------------------------------------5---7--5-------5--7-----7------7---------------
A|----------3----5--3----0-0--3-3/5--5/7-----7---------0----------------------------------
E|--0-3--5----5--------3-------------------------------------------------------------------
G|---12-12--12----12---14-14---14--12---------------------------------------------------
D|-------------14---14-------14--------14-14---12-12--10-10----------------------------
A|----------------------------------------------------------12-12--10-10--------------
E|----------------------------------------------------------------------12-12--10-10----
G|---------------------------------------7---5---------------------------------------------
D|--------------------------------5-6-7----7---7-5--------------7----5-5-------5h7----------
A|-----------------------------7-------------------7-6-5-3--------7-------7-7---------------
E|--8-8--10-10--7-7--8-8--5-5-------------------------------5-5----------------------------
G|-----------------------------------------------------5------------------------------------
D|--------7-----5-5-------5h7-------7--------5---5--7------7/9------------------------------
A|-----------7-------7-7----------------5-7----7--------------------------------------------
E|---5-5-----------------------5-5----5-----------------------------------------------------

0
0
#2
27/07/2008 23:32:43

Quitte  prendre ce enre de truc jpefere son solo sur If you have to Ask
http://fr.youtube.com/watch?v=V0i1jtKOVTM
Apres bon, je vais pas regarder cet intro dsl, jla trouve moins cool et ca va un peu vite.
Bon courage, mais fais toi confiance une fois de plus t'enregistres et si tu trouves que ca sonne garde ca, t'emmerde pas a faire a la note pres, t'es pas obligé de faire comme David.

0
0
#3
28/07/2008 00:13:07
Et encore david j'ai vérifié desfois c'est pas les bonnes notes donc
(tu m'excuseras david )

Moi jaime bien pourtant celui que j'ai mis l'est sympa un peu rapide mais ca le fait
mais sur If you have to ask j'avoue flea groove pas mal j'adore
0
0
#4
28/07/2008 00:31:13
"Fli c le plu bô, c le mayeur !"
0
0
#5
28/07/2008 00:35:21
 Mdr
0
0
#6
28/07/2008 00:42:44
 pour bien faire il faudrait le lien de la vidéo en question!
0
0
#7
28/07/2008 13:31:31
0
0
#9
29/07/2008 02:45:02
Sympa la section rythmique dans s'morceau
0
0
#10
29/07/2008 15:00:50
 
Noariñ0
Sympa la section rythmique dans s'morceau
 C'est pour cela que je bosse aussi cet intro pour me perfectionner en ce qui concerne le rythme

0
0
#11
29/07/2008 16:43:13
 Elle est géniale je trouve, très rapide et super groovy. merci pour cette découverte
0
0
#12
29/07/2008 16:59:28
Ah ben derien lol mais ouais elle est assez rapide et c'est pas mal pour travailler l'agilité et la rapidité quoi (si j'dit pas de bétises )
mais tu en as un autre qui groove pas mal
0
0