ConnexionConnexionInscription
B E A D G
351 connectés Sweepyto Guitare

tab Marcus Miller

#1
09/08/2006 16:11:16
salut à tous et toutes , je cherche (et j'ai du mal) la transcription complete (si possible) du titre "frankenstein" du grand Marcus , merci d'avance...
0
0
#2
10/08/2006 14:45:35
up !! hier il y avait un topic sur frankenstein et je le trouve plus!!!!
0
0
#3
10/08/2006 14:50:27

  S S S S S S S S S S S S Q    
G||-------------------||--------------------------------|
D||-------------------||*-------------------------------|
A||-------------------||*--------------------------1----|
E||-------------------||---3-3---3---3---1-3---3--------|


  S S S S S S S S S  S S  S S  S E       S S S S S S E  S  S S S  S  S E  
-------------------------------------||-----------------------------------|
----------------0------0h-3-5p-3-5--*||-----------------5p-3--------------|
------------------1h-3--------------*||----------------------5-3~-L~-1----|
--3-3---3---1-3----------------------||--3-3---3---1-3-----------------3--|


  S S S S S S S S S S S S Q       S S S S S S S S S  S S  S S S E  
-------------------------------|------------------------------3----|
-------------------------------|----------------0------0h-3-5---5--|
--------------------------1----|------------------1h-3-------------|
--3-3---3---3---1-3---3--------|--3-3---3---1-3--------------------|


                                                        tr         
  S S S S S S S S S S S S S  S  E     S S S S S S E  E  Q       E  
-----------------------------------|-------------------------------|
-----------------------------------|--------------------3(5)----L--|
--------------------------1h-2p-1--|-------------------------------|
--3-3---3---3---1-3---3------------|--3-3---3---1-3----------------|


  S S S S E  S S S  S S S E  S  S      E  T  T  T  T E  E  E  Q.     
-------------3-0-5p-3---3-L--5p-3-|--5g7--5h-7p-5s-3----3--L---------|
--2-3-4-5-L-----------5-----------|------------------5--------5------|
----------------------------------|----------------------------------|
----------------------------------|----------------------------------|


  Q    E   E  E  E  E  E     E  E  E  E  E  S  S S S E  
--------------------------|-----------------------------|
--------------------------|-----------------3s-5-L-5----|
-------3h--4--5--6--3--4--|--5--------------------------|
--6-----------------------|-----1--2--3--L-----------3--|


  Q    E.  S S S S S E  S S    E  E  E  E  E    Q    E  
----------------------------|-----------------3g5-------|
----------------------------|---------------------------|
--3----3-----3-3-----3--x---|--3--1--2--3--L---------3--|
-----------3-------3------3-|---------------------------|


  Q    E.  S S S S S S S S S    E  E  E  E  S S S  S Q     
-----------------------------|------------------7h-9-L\----|
-----------------------------|-----------------------------|
--4----4-----5-5-----5-5---x-|--6--6--6--7--L-7------------|
-----------3-------3---------|-----------------------------|


  S S S S S S S S S S S S Q       S S S S S S S S  S S S S S  S S S 
-------------------------------|----------------5p-3----------------|
-------------------------------|---------------------5-3------------|
--------------------------1----|-------------------------5-4p-3-1---|
--3-3---3---3---1-3---3--------|--3-3---3---1-3-------------------3-|


                                                        tr         
  S S S S S S S S S S S S S  S  E     S S S S S S E  E  Q       E  
-----------------------------------|-------------------------------|
-----------------------------------|--------------------3(5)----L--|
--------------------------1h-2p-1--|-------------------------------|
--3-3---3---3---1-3---3------------|--3-3---3---1-3----------------|


  Q    E.  S Q    E  S S    E.  S S S E  E  E  S S S S 
-------------------------|-----------------------------|
-------------------------|---------------------x-------|
-------1---x-3-----------|------1-L-x-3----------------|
--3------------------x-x-|--3---------------x----x-x-x-|


  Q    E.  S Q    E  S S    E.  S S S E  S S S S E  S S 
-------------------------|------------------------------|
-------------------------|------------------------------|
-------1---x-3-----------|------1-L-x-3------x-x--------|
--3------------------x-x-|--3------------x-x-----1--x-x-|


  E.  S E.  S Q    E   S  S    E.  S S S E  E  E  S S S S 
----------------------------|-----------------------------|
----------------------------|-----------------------------|
------x-1---x-3-------------|------1-L-x-3----------------|
--3-------------------(x)-x-|--3---------------x----x-x-x-|


  Q    E.  S Q    S S S S    E   S  S S S E   E   E   S  S S S 
--------------------------|------------------17--15---L\-------|
--------------------------|------------------------------------|
-------1---x-3------------|-----(x)-1-L-x-3--------------------|
--3-----------------x-x-x-|--3---------------------------0-0-0-|


  E.  S E.  S Q    S S S S    E   S  S S S E  E  E  S S S S 
---------------------------|------------------------x-------|
---------------------------|--------------------------------|
------x-1---x-3------------|-----(x)-1-L-x-3-----x----x-x-x-|
--3------------------x-x-x-|--3-----------------------------|


  E.  S E.  S Q    S S S S    E   S  S S S E  S S S S S S S S 
---------------------------|----------------------------------|
---------------------------|----------------------2-2-----3-3-|
------x-1---x-3------------|-----(x)-1-L-x-3------------------|
--3------------------x-x-x-|--3---------------0-0-----1-1-----|


  E.  S E.  S Q    S S S S    E   S  S S S E  E   E   S S S S 
---------------------------|----------------------5p--3-------|
---------------------------|----------------------------------|
------x-1---x-3------------|-----(x)-1-L-x-3------------------|
--3------------------x-x-x-|--3-------------------------0-0-0-|


  E.  S E.  S Q    S S S S    S S S S S S S S S S S S S S S S 
---------------------------|----------------------------------|
---------------------------|----------------------------------|
------x-1---x-3------------|----------0-0---0-1-1---1-2-2---2-|
--3------------------x-x-x-|--3-3---3-------------------------|


  E.  S E.  S S S S S E  S  S     E  E  E  E  E  Q.      
-------------------------------|-----------------5~------|
-------------------------------|-------------------------|
--3---x-3-----3-3-----3--x-----|--3--1--2--3--L----------|
------------3-------3------(3)-|-------------------------|


  Q    E.  S S S S  S  E.  S    E  E  E  E  S S S  S Q     
-----------------------------|------------------7h-9-L\----|
-----------------------------|-----------------------------|
--4----4-----5-5-------5---5-|--6--6--6--7--L-7------------|
-----------3-------(3)-------|-----------------------------|


  S S S S S S S S S S S S Q       S S S S S S E  S  S S S  S  S S S 
-------------------------------|------------------------------------|
-------------------------------|-----------------5p-3---------------|
--------------------------1----|----------------------5-3~-L~-1-----|
--3-3---3---3---1-3---3--------|--3-3---3---1-3-----------------3-1-|


                                                        tr         
  S S S S S S S S S S S S S  S  E     S S S S S S E  E  Q       E  
-----------------------------------|-------------------------------|
-----------------------------------|--------------------3(5)----L--|
--------------------------1h-2p-1--|-------------------------------|
--3-3---3---3---1-3---3------------|--3-3---3---1-3----------------|


  E.  S E.  S Q    E  S S    E.  S S S E  E  E  S S S S 
--------------------------|-----------------------------|
--------------------------|---------------------x-------|
--------1---x-3-----------|------1-L-x-3----------------|
--3---x---------------x-x-|--3---------------x----x-x-x-|


  Q    E.  S Q    S S S S    E.  S S S E  E   S   S   S   S   S   S  
--------------------------|------------------------------------------|
--------------------------|------------------------------------------|
-------1---x-3------------|------1-L-x-3-----------------------------|
--3-----------------x-x-x-|--3---------------(0)-(0)-(0)-(0)-(0)-(0)-|


  Q    E.  S Q    S S S S    E   S  S S S E  E   E   S  S   S   S  
--------------------------|----------------------5p--3-------------|
--------------------------|----------------------------------------|
-------1---x-3------------|-----(x)-1-L-x-3------------------------|
--3-----------------x-x-x-|--3-------------------------(0)-(0)-(0)-|


  Q    E.  S Q    S S S S    E   S  S S S E   E    E   E    E   
--------------------------|------------------17--/17---L~--15~--|
--------------------------|-------------------------------------|
-------1---x-3------------|-----(x)-1-L-x-3---------------------|
--3-----------------x-x-x-|--3----------------------------------|


  E.  S E.  S Q    S S S S    E   S  S S S E  E   S  S  S  S S S 
---------------------------|----------------------5p-3~-L~-------|
---------------------------|-------------------------------------|
--------1---x-3------------|-----(x)-1-L-x-3---------------------|
--3---x--------------x-x-x-|--3----------------------------0-0-0-|


  Q    E.  S Q    S  S   S   S     E   S  S S S E  S S S S S S S S 
--------------------------------|----------------------------------|
--------------------------------|----------------------2-2-----3-3-|
-------1---x-3------------------|-----(x)-1-L-x-3------------------|
--3-----------------(0)-(0)-(0)-|--3---------------0-0-----1-1-----|


  Q    E.  S Q    S S S S    E   S  S S S E  E  E   S   S   S   S  
--------------------------|---------------------5~--3~-------------|
--------------------------|----------------------------------------|
-------1---x-3------------|-----(x)-1-L-x-3------------------------|
--3-----------------x-0-0-|--3-------------------------(0)-(0)-(0)-|


  Q    E.  S Q    S  S   S   S     E   S  S S S E  S S  S   S   S   S   S   S  
--------------------------------|----------------------------------------------|
--------------------------------|----------------------------------------------|
-------1---x-3------------------|-----(x)-1-L-x-3----3-------------------------|
--3-----------------(0)-(0)-(0)-|--3-------------------(0)-(0)-(0)-(0)-(1)-(1)-|


  Q    E.  S Q    S S  S   S     E   S  S S S E  S S S S S S S S 
------------------------------|----------------------------------|
------------------------------|--------------------x-------------|
-------1---x-3----------------|-----(x)-1-L-x-3------------------|
--3-----------------x-(0)-(0)-|--3-------------------x-x-x-x-x-x-|


  Q    E.  S Q    S S  S   S     E   S  S S S E   E    E   E    E   
------------------------------|------------------17--/17---L~--15~--|
------------------------------|-------------------------------------|
-------1---x-3----------------|-----(x)-1-L-x-3---------------------|
--3-----------------x-(0)-(0)-|--3----------------------------------|


  Q    E.  S Q    S S  S   S     E.  S S S E  E  E  S S S S 
------------------------------|-----------------------------|
------------------------------|---------------------x-------|
-------1---x-3----------------|------1-L-x-3----------------|
--3-----------------x-(0)-(0)-|--3---------------x----x-x-x-|


  E.  S E.  S Q    S  S   S  S    S S S S S S S S S S S S S S S S 
-------------------------------|----------------------------------|
-------------------------------|----------------------------------|
------x-1---x-3----------------|----------0-0---0-1-1---1-2-2---2-|
--3------------------(0)-(0)-x-|--3-3---3-------------------------|


  E.  S E.  S S S S S E.   S     E  E  E  E  E    Q.     
------------------------------|-----------------3g5------|
------------------------------|--------------------------|
--3---x-3-----3-3-----3-------|--3--1--2--3--L-----------|
------------3-------3-----(x)-|--------------------------|


  Q    E.   S  S S S  S  E.  S    E  E  E  E  S S S  S Q     
-------------------------------|------------------7h-9-L\----|
-------------------------------|-----------------------------|
--4----4-------5-5-------5---5-|--6--6--6--7--L-7------------|
-----------(3)-------(3)-------|-----------------------------|


  S S S S E  S  S S S S S  S  S  S S      S S E  E  S  S S S S S  S  S  S S 
-------------------------------------||-------------------------------------|
-----------------------------------3-||*----------------------------------3-|
------------------1---3-1~-L~-5p-3---||*-----------------1---3-1~-L~-5p-3---|
--1-3---3-L--1h-3---3----------------||---1-3----3--1h-3---3----------------|


  E  S  S S E  S  S S S S E   E       E  S  S S E  S  S S S  S  E    E  
----------3----5p-3-7-5-----------||----------3----5p-3-7-5-10--L~--12--|
-----5p-3---5-----------3-L~--5--*||-----5p-3---5-----------------------|
--5------------------------------*||--5---------------------------------|
----------------------------------||------------------------------------|


     E.  S S S E  H            E.  S S S E  H          
|--------------------------|-----------3--------------||
|*--/5---3-5---------------|--/5---3-5---------------*||
|*-------------------------|-------------------------*||
|------------3-------------|--------------------------||


   E.  S S S S  S   S   E.  S  E.     E  E  E  E  E  E  E  E  
-----------3---15S-20S-12---8S-0---|--------------------------|
--/5---3-5-------------------------|--------------------------|
-----------------------------------|--------------------------|
-----------------------------------|--3--3--3--3--3--3--3--3--|


  E  E  E  E  E  E  E  E       S  S  S  S  S  S  S  S  S  S  S  S  S  S  S  S 
---------------------------|--12-11-12-11-12-11-12-11-12-11-12-11-12-11-12-11-|
-----------------------5/--|--------------------------------------------------|
---------------------------|--------------------------------------------------|
--3--3--3--3--3--3--3------|--------------------------------------------------|


   S  S  S  S  S  S  S  S  S  S  S  S  Q        Q    E.  S S S S S  S  S  S S  
--12-11-12-11-12-11-12-11-12-11-12-11-12\----|------------------------10s-9----|
---------------------------------------------|-----------5---------------------|
---------------------------------------------|-------------------5s-8-------7s-|
---------------------------------------------|--3------------3-----------------|


  S S  E  E  S S S S S S  S S E     Q    E  S S S S S S  S  S  S S  
----7s-9-------------9---10------|-------------------------10s-9----|
---------------x-----------------|------------5---------------------|
--5-Ls-7-----------7---7----8----|--------------------5s-8-------7s-|
-------------x-------------------|--3-------x-----3-----------------|


  S S  E  S S S S S  S E  E  E       Q    S T T S S S S S S  S  S  S S  
----7s-9------------------------||-----------------------------10s-9----|
------------x---x------3-----4--||*-----------x---5---------------------|
--5-5s-7------------------------||*-----------------------5s-8-------7s-|
--------------x---0h-1----2-----||---3------x---x-----3-----------------|


  S S  E  S S S S  E   E   S S  S S      S S  E  E  E  E  E  E  S S 
----7s-9----0-----17--15---L---------||----7s-9---------------------|
----------------x-------------------*||-------------2-----3-----4---|
--5-5s-7--------------------------0-*||--5-5s-7---------------------|
--------------x--------------0h-1----||----------0-----1-----2----5-|


    S  S  E  S  S S S S S S  S E  S S    S  S S  S S E  S S S  S S S  S S S   
|---------3---------------------------|--------------------------------------||
|*----------------5-x-7-5------5--x---|-------0-----------------------------*||
|*-----------5s-7---------5s-7--------|-----------------------------------0-*||
|---3-(x)---------------------------x-|--6s-8---/6-L-3--3---0h-1-0-1h-2------||


  S  S S  S S E  S S S S S S S S S    E  E  E   E   S S S S E   E   
-----------------------------------|-----3--5~--3~------------------|
-------0---------------2---3-----0-|------------------0---x---------|
-----------------------------------|------------------------3~--1~--|
--6s-8---/8-L-6--3---x---0---1-----|--3-------------x---x-----------|


  S S S S E    E    S.T S S E  E     S S S S E   E   S S S S E   E   
----------------------------------|----3-----5~--3~----x-------------|
------2---------------------------|----------------------------------|
--L----------3g5--5g3-1---1-------|--x---x-x---------x---x-x-3~--1~--|
----0---0-3-------------3---3--1--|----------------------------------|


   S   E   S  S  E   S  S  T  T  S  S  S  S  S  S  
------10~--9~-L~-7~--5~-L~-6~-5~-3~-5~-3~-0~-------|
--(8)----------------------------------------3~-0~-|
---------------------------------------------------|
---------------------------------------------------|


  E.  S S S E   S S E   E  T T T T    E  S S S S S S   E  S  S E  S S 
------3-L---3~------5~--3----------|-----x--------------------------x-|
--5-------5-----5-x--------3-3-3-3-|--3----5-L-3-5-x-3g5--------------|
-----------------------------------|----------------------1h-3-1--x---|
-----------------------------------|----------------------------------|


  E  S S S S E  S S   E  E   T T T T 
-------3-L---3------3g5--3~----------|
-----------x----5-x----------3-3-3-3-|
-------------------------------------|
--3--x-------------------------------|


  E  T T T T E  T T T T E    S.T T  T T  T  S S    E.  S S S E  E    E  E  S S 
----------------3-3-3-3-3--5g6-5-3p-0-----------|------3-L---3-----3g5--3------|
--3--5-5-5-5-5------------------------3p-0------|----------x----5--------------|
------------------------------------------------|------------------------------|
-------------------------------------------\3-1-|--------------------------1-x-|


  S  S S S S S   E  S  S S S E  S S 
------------------------------------|
----------------------------------x-|
---------1-L---3g5--3s-1---1--------|
--1h-3-------x-----------3---3--1---|


   E    T  T   T  T  T   T  T  T  T  T  T  T  T  T  T   T  T  T  T  T  T  T  T 
------------------------------19----------13-------13h-17----------11-------11h-
-----------------19--------19----------13-------15--------------11-------14-----
----------15h-17----15h-17----------15-------13--------------13-------11--------
--(3)--15------------------------13-----------------------11--------------------


   T  T  T  T  T  T  T  T  T  T  T   T  T  T  T   T  T  T  T   T  T  T  T   T  T
-----------10----------10-------10h-15-------10h-15-------10h-15-------12h-17---
--------10----------10----------------------------------------------------------
-----12----------12----------12-----------12-----------12-----------14----------
--10----------10----------10-----------10-----------10-----------12-----------13


   Q     Q    E.  S  S  S  S S     S S  E  E  S S S S S S  S S E  
-----------------------10s-9----|----7s-9-------x-----9---10------|
--------------------------------|-------------x-------------------|
------------------5s-8-------7s-|--5-5s-7---------x-7---7----8----|
--15\---------------------------|----------x----------------------|


  Q    S T T S S S S S S  S  S  S S     S S  E   Q      Q      Q     
----------------------------10s-9----|----7s-9--12\----15\----19~----|
-----------x---5---------------------|-------------------------------|
-----------------------5s-8-------7s-|--5-5s-7-----------------------|
--3------x---x-----3-----------------|-------------------------------|


  E  E  S T T S S S S S S  S  S  S S     S S  E  S S S S S S S S E  S S 
-----------------------------10s-9----|----7s-9------3---5-3---3--------|
------------x---5---------------------|----------------------5---5--3---|
------------------------5s-8-------7s-|--5-5s-7----x---x----------------|
--3--1----x---x-----3-----------------|-------------------------------x-|


    E  E  S T T S S S S S S  S  S  S S  
-------------------------------10s-9----|
--3g5---------x---5---------------------|
--------------------------5s-8-------7s-|
------------x---x-----3-----------------|


  S S  S  S  S S S S T  T  S S S E.   S 
----7s-9-----0------------------------x-|
---------(0)---x-7-x-8p-7p-5-----5~-----|
--5-Ls-7---------------------7-5--------|
----------------------------------------|


    S S S S E  S  S S S S  S  S  S  S S 
|---------------------------------------|
|*------------------------------------3-|
|*------------------1---3p-1~-L~-5p-3---|
|---1-3---3-L--1h-3---3-----------------|


  E  S  S S E  S  S S  S  S  E    E   4x  W                
----------3----5p-3-7p-5-10--L~--12---||-------------------|
-----5p-3---5------------------------*||-------------------|
--5----------------------------------*||-------------------|
--------------------------------------||-------------------|


    E.  S S S E  H           E.  S S S E  H          
|-------------------------|----------3--------------||
|*--5---3-5---------------|--5---3-5---------------*||
|*------------------------|------------------------*||
|-----------3-------------|-------------------------||


  E  E  E  E  E  E  E  E     E  E  E  E  E  E  E  E   
--------------------------|---------------------------|
--------------------------|-----------------------5/--|
--------------------------|---------------------------|
--3--3--3--3--3--3--3--3--|--3--3--3--3--3--3--3------|


   S  S  S  S  S  S  S  S  S  S  S  S  S  S  S  S 
--12-11-12-11-12-11-12-11-12-11-12-11-12-11-12-11-|
--------------------------------------------------|
--------------------------------------------------|
--------------------------------------------------|


   S  S  S  S  S  S  S  S  S  S  S  S  Q          S S S S S S S S S S S S Q    
--12-11-12-11-12-11-12-11-12-11-12-11-12\----||--------------------------------|
---------------------------------------------||*-------------------------------|
---------------------------------------------||*--------------------------1----|
---------------------------------------------||---3-3---3---3---1-3---3--------|


  S S S S S S S S S  S S  S S  S E    
-------------------------------------||
----------------0------0h-3-5p-3-5--*||
------------------1h-3--------------*||
--3-3---3---1-3----------------------||


  S S S S E  E    S   S  S  S   S  S  E     S S S S S S S S S S S S Q    
-------------7S--12p-10------------------|-------------------------------|
------------------------12-10~--L~-8-----|-------------------------------|
-------------------------------------10--|--------------------------1----|
--3-3---3--------------------------------|--3-3---3---3---1-3---3--------|


  S S S S S S S S  S   S   S  S  S  S  E     S S S S S S S S S S S S S  S  E  
-----------------------------------15-----|-----------------------------------|
----------------0------------15-17----17--|-----------------------------------|
------------------13h-15h-17--------------|--------------------------1h-2p-1--|
--3-3---3---1-3---------------------------|--3-3---3---3---1-3---3------------|


  S S S S S S S S H         
---------------------------||
---------------------------||
---------------------------||
--3-3---3---1-3------------||

désolé je sais pas comment envoyé la tab gp
jespère que tarrivera à lire

0
0
#4
10/08/2006 14:59:28
gros merci a plus...
0
0
#5
10/08/2006 15:28:11
de nada
0
0