ConnexionConnexionInscription
B E A D G
148 connectés Sweepyto Guitare

Cherche tablatures de Wöjtek Pilichowski

#1
12/04/2011 11:20:56
Bonjour, les vacances arrivent et ma basse me fait toujours plus envie chaque jours, elle ne demande qu'à être jouée, et je vais pouvoir la chatouiller durant cette période. Je ne savais pas trop ce que je pourrais bosser, mais du pili ça a l'air pas mal du tout pour 15 jours intensifs

Problème, je n'arrive pas à trouver de tablatures, encore moins celle que j'écoute en boucle: slap machine ( de l'album granat ), mon oreille est loin d'être capable de retranscrire cette ligne...
Quelqu'un aurait cette tablature ( ou d'autres de Wöjtek ) dans ses dossiers?

Merci d'avance

( PS: ça n'a presque rien à voir, mais je pourrais prendre quoi pour m'entrainer au pouce aller/retour? )
0
0
#2
12/04/2011 12:53:25
Si ce n'est pas pressé je peux te donner les tablatures de slap machine, bass dance, profil taxe, message in a bottle, marcus des samedi. Et je peux même faire des vidéos. En ce qui concerne le pouce en allez retour je ferai des exercices vidéo :)
0
0
#3
12/04/2011 13:14:56

Je suis assez intéressé aussi.

0
0
#4
12/04/2011 13:22:52
Et bass talk*
0
+1
#5
12/04/2011 13:53:56
@xalley:  oui ça m'intéresse bien, mais je vais à l'appart de ma miss pour les 2 semaines qui viennent à partir de jeudi, et elle n'a pas de connexion internet   donc pour récupérer tout samedi pour les vacances ça fait un peu mal

Pour les vidéos je pense, c'est un plus, ça aide pas mal et c'est une bonne initiative mais je ne pense pas que ce soit vraiment indispensable en premier temps ( quoique...   )

C'est bizarre qu'on ne retrouve pas de tablatures de notre Woïta ( je me suis fait engueulé par le grand père de la miss parce que je le prononçait mal   ) facilement sur le net, pourtant je pense que c'est un "grosbill" de la basse

En tout cas merci d'avance  
0
0
#6
16/04/2011 13:21:59
Euh... Pas de nouvelles?  
0
0
#7
16/04/2011 13:40:11
Bonnes nouvelles ! ( je suis en train de les écrire )
0
0
#8
16/04/2011 13:42:39
Tablature Slap machine :

Intro ( live ) :
G|-10--------9-----7----------
D|-10-10-------9--------------
A|-------8-7-----5------------
E|----------------------------
   t  p  p p t p p t
 
Début de la chanson :

G|-10-9-7h9h7------------x---------------x-------
D|------------9------5-----------3-x-x-x---x-3-3-
A|---------------5h7---7-------------------------
E|-------------------------1/3-3-----------------

   t  t t    p   p   t p t p   p t p m p t m p p

G|-10-9-7h9h7--------12---------------14-----------16----------18
D|------------9--------------------------------------------------
A|--------------9h10----10---10/12-12-----12/14-14----14/16-16---
E|---------------------------------------------------------------

   t  t t     p p    t  p    p     p  t   p     p  t  p     p  t


G|-10-9-7h9h7------------x---------------x-------
D|------------9------5-----------3-x-x-x---x-3-3-
A|---------------5h7---7-------------------------
E|-------------------------1/3-3-----------------

   t t  t     p  p   t p t p   p t p m p t m p p

G|-10-9-7h9h7---------12--------------10-10---------10----x-----
D|------------9------------------------------------------x------
A|---------------9h10----10---0h10-10-------0h10-10----x----x---
E|------------------------------------------------------------0-

   t t  t     p  p    t  p    p    p  t  t  p    p  t  p tt p p

t : tiré
p : pop ( tapé )
tt : double tiré ( tiré les deux cordes avec un léger décalage de temps entre les deux, d'abord celle de ré et ensuite celle de sol )
m : tapé avec la main gauche


http://www.youtube.com/watch?v=8Q_ar43Bsw0
0
+1
#9
16/04/2011 13:47:04
Il est vrai que ce n'est pas évident de retapper tout à l'oreille de Wojtek, mais ça aide beaucoup de le voir jouer en vidéos de bonne qualité et de se concentrer sur ses doigts pour trouver ce qu'il joue..

Pour l'aller/retour il y'a certains plans supers de Larry Graham, ou bien la fameuse Classical Thump de Wooten
0
0
#10
16/04/2011 14:04:16
Je terminerai cet aprem ! ( les t signifient tirés et p "pop" comme tapés )
0
0
#11
16/04/2011 18:04:00
Retirer
Angel


( PS: ça n'a presque rien à voir, mais je pourrais prendre quoi pour m'entrainer au pouce aller/retour? )
 
heu ! une basse ?




0
+2
#12
16/04/2011 19:30:13
Ajout de la vidéo pour une première partie
0
0
#13
17/04/2011 18:00:49
Ba purée ça va carrément pour un début

0
0
#14
17/04/2011 18:01:54
Ah mais rassure toi il y a de quoi faire avec Wojtek  
0
0
#15
06/07/2017 18:51:31

Je réouvre ce vieux topic pour savoir si certains ont des tablatures de Wojtek, perso j'en repique beaucoups de ses morceaux (à l'oreilles + vidéos live) mais si ca me permet de gagner du temps je suis preneur pour des tablatures (Mlyn Dobry, Marcus, Cienielubie, Awariat, Cos na bas, ou autres). Merci

0
0