ConnexionConnexionInscription
B E A D G
365 connectés Sweepyto Guitare

tab runaway

#1
06/11/2006 13:46:14
G|--8-7-------------------------8|----------------|----------------|----------------|
D|------10-8--------6-------3---|----------------|----------------|----------------|
A|----------------------------6--|----------------|----------------|----------------|
E|-3----------x-3-4--4-x-3-1----|----------------|----------------|----------------|
Salut petite correction sur le cour de "runaway"
je crois que c'est un peux plus la réalitée et merci pour ce cour de Jami...
0
0
#2
06/11/2006 14:00:24
bon ben j'en profite pour corriger celui de Falling :
G-------------------|-------X-5-----------------|
D-------------------|---------------------------|
A----3---2----------|--3--3-------X-5-5--5-7---|
E--0---5---5------5-|-------------------------0-|
0
0
#3
06/11/2006 16:08:08

Faudrait utiliser l'icone TAB pour qu'ça apparaisse mieux la tab, et pour le refrain aussi la fin n'est pas tout à fait correcte.
Sinon merci pour le cours  Un d'plus pour Jami

0
0
#4
06/11/2006 18:02:55
 Noarino je te dis que c'est l'effet star ac sa!!!!!
0
0
#5
06/11/2006 18:24:37
otago36
 Noarino je te dis que c'est l'effet star ac sa!!!!!
 
Pas du tout lol, il avait déjà fait les cours bien avant cette histoire de passage à la star ac
0
0
#6
06/11/2006 18:30:16
je sais hein mais c'est une pointe d'humour histoire de me prendre un bide héhé 
0
0
#7
06/11/2006 18:31:56
 C'est réussi
0
0
#8
06/11/2006 18:48:46
merci 
0
0
#9
06/11/2006 19:00:38
Alors la tab dans le cours elle est correct oui ou non
0
0
#10
06/11/2006 19:06:46
ecoute bien tu verra ^^
0
0
#11
06/11/2006 19:12:44
Valvino
Alors la tab dans le cours elle est correct oui ou non
 
non
0
0
#12
06/11/2006 19:32:41
Oui, à la seconde écoute la fin du refrain n'est pas précisément comme ça. C'est un peu dans cette idée, mais effectivement...
0
0
#13
06/11/2006 20:45:12
la fin du couplet aussi j'aurais plus dis

G|----------------|-----------8----|----------------|----------------|
D|-------6--------|------3---------|----------------|----------------|
A|----------------|--------6-------|----------------|----------------|
E|--3-4-----4-----|---1------------|----------------|----------------|

Comme a essayé dle dire dd60 lol
0
0