ConnexionConnexionInscription
B E A D G
282 connectés Sweepyto Guitare

Paul Mc Cartney - Tiny Bubble [ Artiste ]

Publié par le
07/06/2011
3556 vues
Débutant 3
http://www.youtube.com/watch?v=n_-2hgVB_dE
    
        

Tiny bubble (Driving Rain)                                              
Paul Mc Cartney

Une chanson qui fait voir la vie en rose

Les couplets sont quasi identiques, je n'ai mis que le premier
Les refrains ont des variations de rhytmiques et des "fills" différents




Intro
-----
     Am                         Dm                                                  Am                           
G|--------------------------|-------------------------|-------------------------|-----7------------------------|
D|--------------------------|-------------------------|-------------------------|--7-----7--10--7--12--12--12--|
A|-----------------------3--|--5----5--5--5--5--5--3--|--5--5--5--5--5--5--5----|------------------------------|
E|--5--5--5--5--5--5--5-----|-------------------------|-------------------------|------------------------------|


                             Dm                         Am                         Dm                       
--------------------------|--------------------------|--------------------------|--------------------------|
--------------------------|--------------------------|--------------------------|--------------------------|
-----------------------3--|--5--5--5--5--5--3--5--7--|--------------------3--5--|--L--5--5--5--5--3--5--7--|
--5--5--5--5--5--5--5-----|--------------------------|--5--5--5--5--5--5--------|--------------------------|



Couplet
-------
  Am                         Dm                         F           G              Am                       
--------------------------|--------------------------|--------------------------|--------------------------|
--------------------------|--------------------------|--------------------------|--------------------------|
-----------------------3--|--5--5--5--5--5--5--3--3--|--------------------------|--------------------------|
--5--5--5--5--5--5--5-----|--------------------------|--1--1--1--1--3--3--3--3--|--5--5--5--0--5--5--5--0--|


                             Dm
--------------------------|--------------------------|
--------------------------|--------------------------|
--------------------3--4--|--5--5--5--5--5--5--5--5--|
--5--5--5--5--5--5--------|--------------------------|



Refrain 1
---------
  Bb
---------------------------|-------------------------|--------------------------|---------------------------|
---------------------------|--------------8--8--8----|--------------------------|--------------8--8--8--10--|
---------------------------|-------------------------|--------------------------|---------------------------|
--6---6--6--6--6--6--6--6--|--6--6--6--6-------------|--6--6--6--6--6--6--6--6--|--6--6--6--6---------------|


  D                                              fill 1                             
--------------------------|--------------------------|----------------------------7--|--5---------7--7--7----|
--------------------------|--------------------------|--------------------5s----7----|---------7-------------|
--------------------------|--------------------------|--5--5--5--5--5--5-------------|-----------------------|
--6--6--6--6--6--6--6--6--|--6--6--6--6--6--6--8--8--|-------------------------------|-----------------------|


-------
Couplet
-------


Refrain 2
---------
  Bb                                                                         
------------------------|------------------------|--------------------------|
------------------------|----------------8--8----|--------------------------|
------------------------|------------------------|--------------------------|
--6--6--6----6--6--6----|--6--6--6--6------------|--6--6--6--6--6--6--6--6--|


                  fill 2                                                            
----------------------------------|--------------------------|--------------------------|
--------------10-12-----10--8-----|--------------------------|--------------------------|
-------------------------------8--|--------------------------|--------------------3--5--|
--6--6--6--6----------------------|--6--6--6--6--6--6--6--6--|--6--6--6--6--6--6--------|


              fill 3                                                        
------------------------7-----|
-------------------5s-7----7--|
--5--5--5--5--5---------------|
------------------------------|



Interlude
---------
 Gm                         C                          Gm                       
--------------------------|--------------------------|--------------------------|
--------------------------|--------------------------|--------------------------|
-----------------------1--|--3--3--3--3--3--5--3-----|-----------------------1--|
--3--3--3--3--3--3--3-----|-----------------------3--|--L--3--3--3--3--3--3-----|


  C                          Gm                                     Bb           
--------------------------|--------------------------|--------------------------|
--------------------------|--------------------------|--------------------------|
--3--3--3--3--3--5--3-----|--------------------------|--------------------------|
-----------------------3--|--L--3--3--3--3--3--3--3--|--4--4--4--4--6--6--6--6--|


  C                                                                         
--------------------------|-----------------------------|
--------------------------|--10-10----------------------|
--------------------------|----------10-10--------------|
--8--8--8--8--8--8--8--8--|------------------8-8---8----|


-------
Couplet 
-------


Refrain 3
---------
  Dm                                                                            
--------------------------|-------------------------|--------------------------|
--------------------------|--------------8--8--8----|--------------------------|
--------------------------|-------------------------|--------------------------|
--6--6--6--6--6--6--6--6--|--6--6--6--6-------------|--6--6--6--6--6--6--6--6--|


--------------------------------|--------------------------|--------------------------|
--------------12s-10-8--10------|--------------------------|--------------------------|
----------------------------10--|--------------------------|-----------------------5--|
--6--6--6--6--------------------|--6--6--6--6--6--6--6--6--|--6--6--6--6--6--6--8-----|


                              fill 4
-------------------------7--|-----5h-----7------------|
--------------------5s-7----|--7------7---------------|
--5--5--5--5--5--5----------|---------------5--5------|
----------------------------|-------------------------|


-------
Couplet
-------


Refrain 4
---------
  Bb
-------------------------|
-------------------------|
-------------------------|
--6----6--6--6--6--6--6--|

 
---------------------------|--------------------------|-----------------------------|
-----------------8--8-8-8--|--------------------------|-----------------8--10br--8--|
---------------------------|--------------------------|-----------------------------|
--6--6--6--6--6------------|--6--6--6--6--6--6--6--6--|--6--6--6--6--6--------------|


--------------------------|-------------------------|--------------------------|
--------------------------|-------------------------|--------------------------|
--------------------------|-------------------3--5--|--5--5--5--5--5--5--5--5--|
--6--6--6--6--6--6--6--6--|--6--6--6--6--6----------|--------------------------|


-----7--5-----7----7--7--|--------------------|
--7--------7-------------|--------------------|
-------------------------|--------------------|
-------------------------|--------------------|


Interlude
---------

--------------------|--------------------------|
--------------------|--------------------------|
--------3--3--3--1--|--------------------------|
--------------------|--3--3--3--3--3--3--3--3--|


-------------------------|--------------------------|--------------------------|
-------------------------|--------------------------|--------------------------|
--3--3--3----3--5--3--1--|--------------------------|--------------------------|
-------------------------|--3--3--3--3--3--3--3--3--|--4--4--4--4--6--6--6--6--|


--------------------------|-----------------------------|
--------------------------|--10--10---------------------|
--------------------------|----------10--10-------------|
--8--8--8--8--8--8--8--8--|------------------8--8----8--|

-------
Couplet
-------


Refrain
-------

-------------------------|
-------------------------|
-------------------------|
--6----6--6--6--6--6--6--|


--------------------------|--------------------------|---------------------------|
--8--8--------8--8--------|--------------------------|---------------------------|
--------------------------|--------------------------|---------------------------|
--------6--6--------6--6--|--6--6--6--6--6--6--6--6--|--6--6--6--6--6-3-6--10----|


---------------------------|----------------------------------|
---------------------------|--------------12s-10-8--12s-10-8--|
---------------------------|----------------------------------|
---L--6--6--6--6--6--6--6--|--6--6--6--6----------------------|


Final
-----
 une gamme de Bb à contre temps                                                                 
--------------------------|--------------------------|--------------------------|--------|
--------------------------|-----------5-----7-----8--|-----8--8--8--8--8--8--8--|--------|
-----------------5-----6--|-----8--------------------|--------------------------|--------|
-----6-----8--------------|--------------------------|--------------------------|-6------|

(fichier guitar pro et pdf http://junk1000.free.free.fr/menutabs.html)

    
    

0 Commentaires : réagissez !

1 2 3 4 5
0 notes
Aucun commentaire !