ConnexionConnexionInscription
B E A D G
281 connectés Sweepyto Guitare

Muse - Supermassive Blackhole [ Artiste ]

Publié par le
18/10/2011
7763 vues
Débutant 3
http://www.youtube.com/watch?v=H3MQQ4_SE0Y
    
        

Intro :

G----------------|----------------|----------------|----------------|
D----------------|----------------|----------------|----------------|
A----------------|----------------|----------------|----------------|
E-0--------------|----------------|-0--------------|----------------|

G----------------|----------------|----------------|----------------|
D----------------|----------------|----------------|----------------|
A----------------|----------------|----------------|----------------|
E-0--------------|----------------|-0--------------|----------------|

G----------------|----------------|----------------|----------------|
D----------------|----------------|----------------|----------------|
A----------------|----------------|----------------|----------------|
E-0-0-3-0-0-3-3-3|-0-0-3-0-0-5-5-3|-0-0-3-0-0-3-3-3|-0-0-3-0-0-5-5-7|

G----------------|----------------|----------------|----------------|
D----------------|----------------|----------------|----------------|
A----------------|----------------|----------------|----------------|
E-0-0-3-0-0-3-3-3|-0-0-3-0-0-5-5-3|-0-0-3-0-0-3-3-3|-0-0-3-0--------|


Premier Couplet :

G----------------|----------------|----------------|----------------|
D----------------|----------------|----------------|----------------|
A----------------|----------------|----------------|----------------|
E-0--------------|----------------|-0--------------|----------------|

G----------------|----------------|----------------|----------------|
D----------------|----------------|----------------|----------------|
A----------------|----------------|----------------|----------------|
E-0--------------|----------------|-0--------------|----------------|


Refrain :

G----------------|----------------|----------------|-----------------|
D-----7-----7-7-6|-----5----------|-----9-----8-7-5|-----------------|
A----------------|----------------|----------------|-----------------|
E-5-5---5-5------|-3-3---3-3-5-5-6|-7-7---7-7------|-0-0-0-2-2-3-3-4-|

G----------------|----------------|----------------|-----------------|
D-----7-----7-7-6|-----5----------|-----9-----8-7-5|-----------------|
A----------------|----------------|----------------|-----------------|
E-5-5---5-5------|-3-3---3-3-5-5-6|-7-7---7-7------|---0---2---3---4-|

G----------------|----------------|----------------|-----------------|
D-----7-----7-7-6|-----5----------|-----9-----8-7-5|-----------------|
A----------------|----------------|----------------|-----------------|
E-5-5---5-5------|-3-3---3-3-5-5-6|-7-7---7-7------|-0-0-0-2-2-3-3-4-|

G----------------|----------------|----------------|-----------------|
D-----7-----7-7-6|-----5----------|-----9-----8-7-5|---9-9-8-7-7-5-4-|
A----------------|----------------|----------------|-----------------|
E-5-5---5-5------|-3-3---3-3-5-5-6|-7-7---7-7------|-----------------|

Second Couplet :

G----------------|----------------|----------------|----------------|
D----------------|----------------|----------------|----------------|
A----------------|----------------|----------------|----------------|
E-0--------------|----------------|-0--------------|----------------|

G----------------|----------------|----------------|----------------|
D----------------|----------------|----------------|----------------|
A----------------|----------------|----------------|----------------|
E-0--------------|----------------|-0--------------|----------------|

Refrain :

G----------------|----------------|----------------|-----------------|
D-----7-----7-7-6|-----5----------|-----9-----8-7-5|-----------------|
A----------------|----------------|----------------|-----------------|
E-5-5---5-5------|-3-3---3-3-5-5-6|-7-7---7-7------|-0-0-0-2-2-3-3-4-|

G----------------|----------------|----------------|-----------------|
D-----7-----7-7-6|-----5----------|-----9-----8-7-5|-----------------|
A----------------|----------------|----------------|-----------------|
E-5-5---5-5------|-3-3---3-3-5-5-6|-7-7---7-7------|---0---2---3---4-|

G----------------|----------------|----------------|-----------------|
D-----7-----7-7-6|-----5----------|-----9-----8-7-5|-----------------|
A----------------|----------------|----------------|-----------------|
E-5-5---5-5------|-3-3---3-3-5-5-6|-7-7---7-7------|-0-0-0-2-2-3-3-4-|

G----------------|----------------|----------------|-----------------|
D-----7-----7-7-6|-----5----------|-----9-----8-7-5|---9-9-8-7-7-5-4-|
A----------------|----------------|----------------|-----------------|
E-5-5---5-5------|-3-3---3-3-5-5-6|-7-7---7-7------|-----------------|


Fin Du Refrain "A SUPERMASSIVE BLACK HOLE !!!" :

G----------------|----------------|----------------|----------------|
D----------------|----------------|----------------|----------------|
A----------------|----------------|----------------|----------------|
E-0--------------|----------------|-0--------------|----------------|

G----------------|----------------|----------------|----------------|
D----------------|----------------|----------------|----------------|
A----------------|----------------|----------------|----------------|
E-0--------------|----------------|-0--------------|----------------|


Solo :

G----------------|----------------|----------------|-----------------|
D----------------|----------------|----------------|-----------------|
A----------------|----------------|----------------|-----------------|
E-0-0-3-0-0-3-3-3|-0-0-3-0-0-5-5-3|-0-0-3-0-0-3-3-3|-0-0-3-0-0-5-5-7-|

G----------------|----------------|----------------|-----------------|
D----------------|----------------|----------------|-----------------|
A----------------|----------------|----------------|-----------------|
E-0-0-3-0-0-3-3-3|-0-0-3-0-0-5-5-3|-0-0-3-0-0-3-3-3|-0-0-3-0---------|


Refrain :

G----------------|----------------|----------------|-----------------|
D-----7-----7-7-6|-----5----------|-----9-----8-7-5|-----------------|
A----------------|----------------|----------------|-----------------|
E-5-5---5-5------|-3-3---3-3-5-5-6|-7-7---7-7------|-0-0-0-2-2-3-3-4-|

G----------------|----------------|----------------|-----------------|
D-----7-----7-7-6|-----5----------|-----9-----8-7-5|-----------------|
A----------------|----------------|----------------|-----------------|
E-5-5---5-5------|-3-3---3-3-5-5-6|-7-7---7-7------|---0---2---3---4-|

G----------------|----------------|----------------|-----------------|
D-----7-----7-7-6|-----5----------|-----9-----8-7-5|-----------------|
A----------------|----------------|----------------|-----------------|
E-5-5---5-5------|-3-3---3-3-5-5-6|-7-7---7-7------|-0-0-0-2-2-3-3-4-|

G----------------|----------------|----------------|-----------------|
D-----7-----7-7-6|-----5----------|-----9-----8-7-5|---9-9-8-7-7-5-4-|
A----------------|----------------|----------------|-----------------|
E-5-5---5-5------|-3-3---3-3-5-5-6|-7-7---7-7------|-----------------|


Fin Du Refrain "A SUPERMASSIVE BLACK HOLE !!!" :

G----------------|----------------|----------------|----------------|
D----------------|----------------|----------------|----------------|
A----------------|----------------|----------------|----------------|
E-0--------------|----------------|-0--------------|----------------|

G----------------|----------------|----------------|----------------|
D----------------|----------------|----------------|----------------|
A----------------|----------------|----------------|----------------|
E-0--------------|----------------|-0--------------|----------------|
    
    

1 Commentaire

1 2 3 4 5
3 notes
Notes pour Supermassive Blackhole Basse Tab - (Muse) | Slappyto : 5/5 sur 3 notes
#1
20/11/2011 11:04:40
exelente tab
0
0