ConnexionConnexionInscription
B E A D G
227 connectés Sweepyto Guitare

Gorillaz - Feel Good Inc. [ Artiste ]

Publié par le
23/10/2011
18318 vues
Débutant 2
http://www.youtube.com/watch?v=plvpV9p0ywg
    
        

Couplet :

G|---------------------------------------------
D|-------------9--8----X-6-X-6-9-8-X-----------
A|-6-X-6-8-9-X-----------------------9--6------
E|--------------------------------------------- etc...

Il s'agit de la version que je joue mais pas forcément la version officielle (je trouve que les notes mortes 
"dead notes" apportent un petit quelque chose en plus !)

Pour les bassistes débutants, vous pouvez ignorez les dead notes (les X)


Petit fil de basse (à la fin de certains cycles, écoutez attentivement la chanson pour savoir quand les jouer.
 Sinon, vous n'avez qu'à créer les vôtres !!!) :

G|-----------------------------------------3/8-
D|-------------9--8----X-6-X-6-9-8-X-----------
A|-6-X-6-8-9-X-----------------------9--6------
E|---------------------------------------------


Descente (fin du premier couplet) :

G|----------------
D|----------------
A|-6-4------------
E|------6--4-2--0- 
Note : Le mi est une fausse note volontaire présente dans la chanson ! Si vous 
ne voulez pas de cette fausse note, vous devez désaccorder votre basse :

Descente (désaccordé) :

G |----------------
D |----------------
A |-6-4------------
B#|------7--5-3--0-


Il n'y a pas de basse pour le refrain !
    
    

4 Commentaires

1 2 3 4 5
7 notes
Notes pour Feel Good Inc. Basse Tab - (Gorillaz) | Slappyto : 4/5 sur 7 notes
#4
07/01/2016 12:52:40
G|-----7----5-------|----------------|----------------|----------------|
D|----------------|-----7---5--3------|----------------|----------------|
A|----------------|----------------|------3----------|----------------|
E|----------------|----------------|----------------|----------------|
je vois plutot ça pour la fin
0
0
#3
26/10/2011 10:02:56
J'avais appris cette ligne ausi lorsque j'ai commencer mais sans Dead note effectivement, ça bouge bien c'est pas mal pour débuter  
0
0
#2
23/10/2011 20:27:42

Au fait, erreur !
Dans la version désaccordé il ne s'agit bien sûr de B# mais bien de D# !!!
J'espère que les modérateurs pourront arranger ça !

0
0
#1
23/10/2011 17:55:33

je suis pas sur mais je crois que cette fameuse fausse note est un mi diese,je conseil de la'accorder d'un demi ton en dessous afin de décaller les notes d'une frette, plus pratique ( mais ce n'est qu'un avis personnel   )

0
0