ConnexionConnexionInscription
B E A D G
161 connectés Sweepyto Guitare

Police - Walking On The Moon [ Artiste ]

Publié par le
29/10/2011
25941 vues
Débutant 2
http://www.youtube.com/watch?v=mbv-LcdLY-Y
    
        

 Couplet :

G|--------------------------------
D|--------------------------------
A|------------------------3---3-5-
E|--------------------------------

G|----------------------------------------------------------------   
D|------------------------3---2-----------------------------------  
A|------------------------------3-------------------------3---3-5-
E|----------------------------------------------------------------


Transition couplet/refarin :

G|--------------------------------
D|-----------------------5--5-5---
A|----------------------5---------
E|--------------------------------


 Refrain :

G|----------------------------------------------------------------
D|----------------------------------------------------------------
A|1---1---1-----3-----------------3---3---3-----3-------------0---
E|----------------1--1--1-1-----3-----------------3--3--3-3-------

G|----------------------------------------------------------------
D|----------------------------------------------------------------
A|1---1---1-----3-----------------3--33---3-----3-------------0---
E|----------------1--1--1-1-----3-----------------3--3--3-3-------

G|----------------------------------------------------------------
D|----------------------------------------------------------------
A|1---1---1-----3-----------------3--33---3-----3-------------0---
E|----------------1--1--1-1-----3-----------------3--3--3-3-------

G|----------------------------------------------------------------
D|----------------------------------------------------------------
A|1---1---1-----3-----------------3---3---3-3-----3-------3---3-5-
E|----------------1--1--1-1-----3---------------------------------


Pour simuler l'outro, baissez le volume de votre basse pendant que vous jouez le couplet en boucle !
:)
    
    

1 Commentaire

1 2 3 4 5
4 notes
Notes pour Walking On The Moon Basse Tab - (Police) | Slappyto : 5/5 sur 4 notes