ConnexionConnexionInscription
B E A D G
282 connectés Sweepyto Guitare

Van halen - you really got me [ Artiste ]

Publié par le
17/12/2010
11616 vues
Moyen 2
http://www.youtube.com/watch?v=HB8WHA3WWz0
    
        

Intro
G-|------------|--------------|--------------|--------------|
D-|------------|--------------|--------------|--------------|
A-|------------|--------------|--------------|--------------|
E-|--------10\3|-5-5-3-5-----3|-5-5-3-5-----3|-5-5-3-5-----3|

G--------------|
D--------------|
A--------------|
E-5-5-3-5-----3|

Verse 1
G--------------| x3
D--------------|
A--------------|
E-5-5-3-5-----3|

G-----5-----4----|--------------|
D----------------|--------------|
A---3---3-2------|--------------|
E-5-----------0-3|-5-5-3-5-----3|

G--------------| x2
D--------------|
A--------------|
E-5-5-3-5-----3|

G--------------|--------------|
D--------------|--------------|
A--------------|--------------|
E-5-0-0-3---4-5|-7-7-5-7-----5|

G--------------| x2
D--------------|
A--------------|
E-7-7-5-7-----5|

G----------------|----------------|
D----------------|----------------|
A-------------5-6|-7-7-5-7-7\----5|
E-7-7-5-7-7-5----|----------------|

G----------------| x2
D----------------|
A-7-7-5-7-7\----5|
E----------------|

G---------------|x2
D---------------|
A-7-7-5-7-7\---5|
E------------0--|

G---------------|----------|-----------|
D---------------|----------|-----------|
A-7-7-5-7-7\----|-5--------|-5---------|
E------------0-0|----------|-------/15\|

Verse 2
G--------------| x3
D--------------|
A--------------|
E-5-5-3-5-----3|

G-----5------|--------------|
D------------|--------------|
A---3--------|--------------|
E-5---------3|-5-5-3-5-----3|

G--------------| x2
D--------------|
A--------------|
E-5-5-3-5-----3|

G--------------|--------------|
D--------------|--------------|
A--------------|--------------|
E-5-0---3---4-5|-7-7-5-7-----5|

G--------------| x2
D--------------|
A--------------|
E-7-7-5-7-----5|

G----------------|----------------|
D----------------|----------------|
A-------------5-6|-7-7-5-7-7\----5|
E-7-7-5-7---5----|----------------|

G----------------| x2
D----------------|
A-7-7-5-7-7\----5|
E----------------|

G---------------|x2
D---------------|
A-7-7-5-7-7\---5|
E------------0--|

G---------------|----------|---------------|
D---------------|-7--------|-7-------------|
A-7-7-5-7-7\----|-5--------|-5-------------|
E------------0-0|----------|-------/14\-2-3|

Guitar Solo
G---------------| x2
D---------------|
A---------------|
E-5-5-3-5-5\---3|

G----------------|---5-----7----|
D----------------|--------------|
A---------------3|-3---2-3-5----|
E-5-5-3-5---3-5--|-----------0-3|

G---------------| x2
D---------------|
A---------------|
E-5-5-3-5-5\---3|

G----------------|----------------|
D----------------|---3---3---5---5|
A----------------|----------------|
E-5-5-3-5---3-5-0|-1---1---3---3--|

G--------------| x3
D--------------|
A--------------|
E-5-5-3-5-----3|

G-------4--------|----------|-t-|
D----------------|----------|-s-|
A---3-2---2------|----------|-e-|
E-5---------0-3-4|-5\-------|-r-|

Verse 3
G-t-|-----------|
D-s-|-----------|
A-e-|-----------|
E-r-|-/18\------|

G----------------|----------------|
D----------------|----------------|
A-------------5-6|-7-7-5-7-7\----5|
E-7-7-5-7---5----|----------------|

G----------------| x2
D----------------|
A-7-7-5-7-7\----5|
E----------------|

G---------------|x2
D---------------|
A-7-7-5-7-7\---5|
E------------0--|

G---------------|-------------|
D---------------|-------9-----|
A-7-7-5-7-7\----|-------7-----|
E------------0-0|-0-0-0-0-----|
    
    

2 Commentaires

1 2 3 4 5
3 notes
Notes pour You Really Got Me Basse Tab - (Van Halen) | Slappyto : 3/5 sur 3 notes
#2
23/02/2012 16:41:53
Ils sont accordés un 1/2 ton plus bas en fait mais le doigté, ça doit être à peu près ça
0
0
#1
18/12/2010 20:04:00
un demi ton + bas, ça serait plus juste non?
0
+1