ConnexionConnexionInscription
B E A D G
194 connectés Sweepyto Guitare

Soundgarden - Black Hole Sun [ Artiste ]

Publié par le
13/11/2012
4992 vues
Débutant 1
http://www.youtube.com/watch?v=3mbBbFH9fAg&list...
    
        

Black Hole Sun

Verse           
G|---------------|----------|---------|----------------|
D|*--------------|----------|---------|---------------*|
A|*--------------|----------|---------|---------------*|
D|--5--5/8---8\--|--3---2---|-1---0---|-5--5-3--3-/-6--|

Chorus 1
G|-----------|------------------|---------|-----------------|
D|-----------|------------------|---------|-----------------|
A|-----------|------------1-----|---------|-3-3-3-3-/-5-----|
D|-1----0----|--5--5-3--3-----0-|-1---0---|-----------------|

Verse

Chorus 2
G|-----------|------------------|---------|-----------------|
D|-----------|------------------|---------|-----------------|
A|-----------|------------1-----|---------|-3-33-3-0-1-11-1-|
D|-1----0----|--5--5-3--3-----0-|-1---0---|-----------------|
                                                                   (4x)
G|-----------|------------------|---------|----------------------------|
D|-----------|------------------|---------|*--------------------------*|
A|-----------|------------1-----|---------|*-3-33-3-0-1-11-1--5--55-5-*|
D|-1----0----|--5--5-3--3-----0-|-1---0---|------------------(0)-(0)---|
                

Guitar Solo          (6x)             Verse
G|-----------------------|-----------|----------------|----------------|
D|*---------------------*|-----------|----------------|----------------|
A|*-3-2-0--3------------*|-----------|----------------|----------------|
D|-----------5-4-3-3-33--|-3/5--5----|-5--/-8---8\----|--3---2---------|
                

Chorus 2
Guitar solo riff
    
    

0 Commentaires : réagissez !

1 2 3 4 5
1 note
Notes pour Black Hole Sun Basse Tab - (Soundgarden) | Slappyto : 5/5 sur 1 note
Aucun commentaire !