ConnexionConnexionInscription
B E A D G
192 connectés Sweepyto Guitare

Dizzee Rascal - Dizzee Rascal - Dirtee Disco [ Artiste ]

Publié par le
21/05/2013
2373 vues
Débutant 3
    
        

Intro
G|-----------------2-4------------------------------|
D|------7-9--------------------2-4------------------|
A|---7-9------------------------------5--4----------|
E|7--------7---5--3----33--2--0----00-------0-0-2---|

Verse
G|-----------------2-4------------------------------|
D|------7-9--------------------2-4------------------|
A|---7-9------------------------------5--4----------|
E|7--------7---5--3----33--2--0----00-------0-0-2---|

Chorus
G|--------------------------------------------------|
D|--------------------------------------------------|
A|------------------7-9-7-9-------------------------|
E|7(HOLD)--------------------7(HOLD)----------------|

G|--------------------------------------------------|
D|--------------------------------------------------|
A|--------------------------------5--4(HOLD)--------|
E|7(HOLD)--5--3(HOLD)--2--0(HOLD)------------2(HOLD)|



Intro  x2
Verse  x5
Chorus x2
Verse  x5
Chorus x2
Bridge x1
Chorus x1
Verse  x5
Chorus x2

    
    

0 Commentaires : réagissez !

1 2 3 4 5
0 notes
Aucun commentaire !