ConnexionConnexionInscription
B E A D G
210 connectés Sweepyto Guitare

Kool & the Gang - Get Down On It [ Artiste ]

Publié par le
27/12/2010
27729 vues
Débutant 3
http://www.youtube.com/watch?v=qchPLaiKocI
    
        

G------------------------------------------------------------------------------
D------------------------------------------------------------------------------
A---2-3-5--0-2---2-3-5--0-2----------------------------------------------------
E-0------------0---------------------------------------------------------------

G------------------------------------------------------------------------------
D------------------------------------------------------------------------------
A---22-0-0-2---22-5--5-5-------------------------------------------------------
E-0----------0-----------------------------------------------------------------
    
    

3 Commentaires

1 2 3 4 5
13 notes
Notes pour Get Down On It Basse Tab - (Kool & The Gang) | Slappyto : 4/5 sur 13 notes
#3
23/02/2013 13:30:09

J'arrive à retrouver Amy whinehouse, Selah sue, Nirvana, Hocus Pocus mais celle là j'y suis jamais arrivé LOL Sinon c'est correct

0
0
#2
23/02/2013 13:30:05

J'arrive à retrouver Amy whinehouse, Selah sue, Nirvana, Hocus Pocus mais celle là j'y suis jamais arrivé LOL Sinon c'est correct

0
0
#1
15/05/2012 22:41:15

Super pour débuter.

0
0